Song name
# A B C D E F G H I J K L M N O P Q R S T U V W X Y Z

Chevelle - Sleep Apnea tab

Chevelle - Sleep Apnea
Track #1 - Sci-Fi Crimes

Just saw them play last night at Bayfest in Mobile, AL.....got this from the concert and 
youtube videos.  This should be spot on........

INTRO - PART 1
   1x
eb|------------------------------------------------------------|
Bb|------------------------------------------------------------|
Gb|------------------------------------------------------------|
Db|------------------------------------------------------------|
Ab|------------------------------------------------------------|
Db|10-0-0-12-0-0-10-0-0-15-0-0-10-0-0-12-0-0-10-0-0-15-0-0-10--|

INTRO - PART 2
   8x
eb|---------------------------|
Bb|---------------------------|
Gb|---------------------------|
Db|---------------------------|
Ab|---------------------------|
Db|0-00-12h15-0-00-10h13------|

VERSE
   12x - Turn down volume on guitar about 1/2 way
eb|---------------------------|
Bb|---------------------------|
Gb|---------------------------|
Db|---------------------------|
Ab|---------------------------|
Db|0-00-12h15-0-00-10h13------|

PRECHORUS
   1x
eb|--------|
Bb|--------|
Gb|--------|
Db|-10-----|
Ab|-10-----|
Db|-10-----|

CHORUS
   2x
eb|---------------------------------------|
Bb|---------------------------------------|
Gb|---------------------------------------|
Db|-7-------8-------3-------10------------|
Ab|-5-(8x)--8-(8x)--3-(8x)--10-(8x)--0~---|
Db|-0-------8-------3-------10-------0~---|
                                     ^ - Play this 1x the 2nd time around
VERSE

CHORUS
eb|-----------------------------------|
Bb|-----------------------------------|
Gb|-----------------------------------|
Db|-7-------8-------3-------10--------|
Ab|-5-(8x)--8-(8x)--3-(8x)--10-(8x)---|
Db|-0-------8-------3-------10--------|

eb|---------------------------------------|
Bb|---------------------------------------|
Gb|---------------------------------------|
Db|-7-------8-------3-------10---------14-|
Ab|-5-(8x)--8-(8x)--3-(8x)--10-(8x)--X-14-|
Db|-0-------8-------3-------10-------X-14-|

BRIDGE - Part 1
  3x
eb|-------------------------------------------|
Bb|-------------------------------------------|
Gb|-------------------------------------------|
Db|--------------------------------------5-8--|
Ab|--------------------------------------5-8--|
Db|0-00-12h15-0-00-10h13-0-00-12h15-0-00-5-8--|

BRIDGE - Part 2
eb|----------------------------------------------------------------------|
Bb|----------------------------------------------------------------------|
Gb|----------------------------------------------------------------------|
Db|--------------------------------------5-7-8-7-5-7-3-10-------10-------|
Ab|--------------------------------------5-7-8-7-5-7-3-10-00-00-10-00-00-|
Db|0-00-12h15-0-00-10h13-0-00-12h15-0-00-5-7-8-7-5-7-3-10-00-00-10-00-00-|

   2x
eb|--------------------------------|
Bb|--------------------------------|
Gb|--------------------------------|
Db|-8-7-5-7-3-10-------10----------|
Ab|-8-7-5-7-3-10-00-00-10-00-00----|
Db|-8-7-5-7-3-10-00-00-10-00-00----|

eb|-----------------------------------------------------------------------|
Bb|-----------------------------------------------------------------------|
Gb|-----------------------------------------------------------------------|
Db|-8-7-5-7-3-10-------12-------10-------15-------10-------12-------10----|
Ab|-8-7-5-7-3-10-00-00-12-00-00-10-00-00-15-00-00-10-00-00-12-00-00-10-00-|
Db|-8-7-5-7-3-10-00-00-12-00-00-10-00-00-15-00-00-10-00-00-12-00-00-10-00-|


eb|----------------------------|
Bb|----------------------------|
Gb|----------------------------|
Db|----15-------10---(BREAK)---|
Ab|-00-15-00-00-10-------------|
Db|-00-15-00-00-10-------------|

CHORUS - 2X

BRIDGE - PART 1 AGAIN
   3X
eb|-------------------------------------------|
Bb|-------------------------------------------|
Gb|-------------------------------------------|
Db|--------------------------------------5-8--|
Ab|--------------------------------------5-8--|
Db|0-00-12h15-0-00-10h13-0-00-12h15-0-00-5-8--|

   1X
eb|--------------------------------------------|
Bb|--------------------------------------------|
Gb|--------------------------------------------|
Db|--------------------------------------5-8-0-|
Ab|--------------------------------------5-8-0-|
Db|0-00-12h15-0-00-10h13-0-00-12h15-0-00-5-8-0-|
Tap to rate this tab
 
# A B C D E F G H I J K L M N O P Q R S T U V W X Y Z