Song name
# A B C D E F G H I J K L M N O P Q R S T U V W X Y Z

Chevelle - Sleep Apnea tab

Artist: Chevelle
Song: Sleep Apnea
Label: Epic
Tabber: MetalSlayer09
e-mail: 09bpott@gmail.com

alright this is sleep apnea by Chevelle, great song by the way my personal fav from the 
album, anyhow the tuning for
this thing is half a step down and drop d anyhow have fun, i think this is correct but i 
appreciate comments on
how to correct a tab, no one ever gets it right the first time so here we go...

tuning:
Db ab db gb bb eb

	intro
Eb---[-----------------------------[
Bb---[-----------------------------[
Gb---[-----------------------------[
db---[-----------------------------[
Ab---[-----------------------------[
Db-10[-0-0-12-0-0-10-0-0-15-0-0-10-[

	pre verse \ verse             "pre-chorus"
Eb---------------------------------[------[
Bb---------------------------------[------[
Gb---------------------------------[------[
db---------------------------------[---10-[
Ab---------------------------------[---10-[
Db-0--0-0-12-15-12-0--0-0-12-13-12-[-0-10-[

	chorus
Eb-------------------------------------------------------------------------[
Bb-------------------------------------------------------------------------[
Gb-7-7-7-7-7-7-7-7---------------------------------------------------------[
db-7-7-7-7-7-7-7-7-8-8-8-8-8-8-8-8-3-3-3-3-3-3-3-3-10-10-10-10-10-10-10-10-[
Ab-5-5-5-5-5-5-5-5-8-8-8-8-8-8-8-8-3-3-3-3-3-3-3-3-10-10-10-10-10-10-10-10-[
Db-----------------8-8-8-8-8-8-8-8-3-3-3-3-3-3-3-3-10-10-10-10-10-10-10-10-[

	interlude
Eb-------------------------------------------------------[
Bb-------------------------------------------------------[
Gb-------------------------------------------------------[
db---------------------------------------------------3-8-[
Ab---------------------------------------------------3-8-[
Db-0--0-0-12-15-12-0--0-0-12-13-12-0--0-0-12-15-12-0-3-8-[

Eb----------------------------[--------------------------------------------------------------[
Bb----------------------------[--------------------------------------------------------------[
Gb----------------------------[--------------------------------------------------------------[
db-8-7-5-7-3-10-----10-----10-[-8-7-5-7-5-3-10-----12-----10-----15-----10-----12-----10-----[
Ab-8-7-5-7-3-10-----10-----10-[-8-7-5-7-5-3-10-----12-----10-----15-----10-----12-----10-----[
Db-8-7-5-7-3-10-0-0-10-0-0-10-[-8-7-5-7-5-3-10-0-0-12-0-0-10-0-0-15-0-0-10-0-0-12-0-0-10-0-0-[

Eb------------[
Bb------------[
Gb------------[
db-15-----10-0[
Ab-15-----10-0[
Db-15-0-0-10-0[

for the little clean part after that just play the same chords as the chorus without distortion

the outro is the first part of the interlude followed by

Eb---[
Bb---[
Gb---[
db-0-[
Ab-0-[
Db-0-[

there's a high part behind the final chorus that's giving me problems so i'll just add 
later guys
real sorry about that, anyhow hope you enjoyed it so until next time keep rocking, and 
to get some friends into
Chevelle to they're a real under rated band!
Tap to rate this tab
 
# A B C D E F G H I J K L M N O P Q R S T U V W X Y Z