Song name
# A B C D E F G H I J K L M N O P Q R S T U V W X Y Z

Chevelle - Highlands Apparition Live tab

-------------------------------------------------------------------------------
                      Highland's Apparition(Live) - CheVelle
-------------------------------------------------------------------------------
Tabbed by:ChevelleGuitar	
Email:irondrummer1@hotmail.com

Okay so this is exactly how Pete plays it live. Listen for strumming patterns
Tuning:db
Verses
e|---------------------------------------------------------------------------|
B|---------------------------------------------------------------------------|
G|---------------------------------------------------------------------------|
D|---------------------------------------------------------------------------|
A|------10 9-----10 9-----10 9-----10 9--------------------------------------|
E|-00000----00000----00000----00000------------------------------------------|

e|---------------------------------------------------------------------------|
B|---------------------------------------------------------------------------|
G|11------9------------------------------------------------------------------|
D|9-------7------------------------------------------------------------------|
A|9-strum-7------------------------------------------------------------------|
E|9-------7------------------------------------------------------------------|
Chorus
e|--------x------------------------------------------------------------------|
B|3-------x------------------------------------------------------------------|
G|2-------2-------7-------7-------4-------7-------5--------------------------|
D|0-------2-------5-------7-------4-------5-------5--------------------------|
A|0-strum-0-strum-5-------5-strum-2-strum-5-strum-3--------------------------|
E|0-------x-------5-strum-0-------x-------5-------x--------------------------|
Bridge
e|---------------------------------------------------------------------------|
B|---------------------------------------------------------------------------|
G|----0-----0-----------0-----0----------x2----------------------------------|
D|--4--4--4--4--------4---4-4---4--------------------------------------------|
A|-2-2--0--0--2------2-2---0-0-----------------------------------------------|
E|--------------------------------2------------------------------------------|

e|---------------------------------------------------------------------------|
B|---------------------------------------------------------------------------|
G|4------7------2------9------4------7------2------4-------------------------|
D|4------7------2------9------4------7------2------2-----------x4------------|
A|2strum-5strum-0strum-7strum-2strum-5strum-0strum-2strum--------------------|
E|x------x------x------x------x------x------x------2-------------------------|

Song Order:
Verse
Chorus
Verse
Chorus
Bridge
Verse
Chorus

| /  slide up
| \  slide down
| h  hammer-on
| p  pull-off
| ~  vibrato
| +  harmonic
| x  Mute note
==============================================================================
Tap to rate this tab
# A B C D E F G H I J K L M N O P Q R S T U V W X Y Z