Song name
# A B C D E F G H I J K L M N O P Q R S T U V W X Y Z

Chevelle - This Circus tab

    S S S S S S S S S S S S S S S S    S S S S S S S S S S S S S S S S  
D||----------------------------------|----------------------------------|
A||----------------------------------|----------------------------------|
F||----------------------------------|----------------------------------|
C||----------------------------------|----------------------------------|
G||--5-5-5-5---------5-5-5-5-3-3-3-3-|--7-7-7-7---------7-7-7-7-8-8-7-7-|
C||----------------------------------|----------------------------------|

 S S S S S S S S S S S S S S S S    S S S S S S S S S S S S S S S S  
----------------------------------|----------------------------------|
----------------------------------|----------------------------------|
----------------------------------|----------------------------------|
----------------------------------|----------------------------------|
--5-5-5-5---------5-5-5-5-3-3-3-3-|--7-7-7-7---------7-7-7-7-3-3-3-3-|
----------------------------------|----------------------------------|

  S S S S S S S S S S S S S S S S    S S S S S S S S S S S S S S S S  
----------------------------------|----------------------------------|
----------------------------------|----------------------------------|
----------------------------------|----------------------------------|
----------------------------------|----------------------------------|
--5-5-5-5---------5-5-5-5-3-3-3-3-|--7-7-7-7---------7-7-7-7-8-8-7-7-|
----------------------------------|----------------------------------|


  S S S S S S S S S S S S S S S S    S S S S S S S S S S S S S S S S  
----------------------------------|----------------------------------|
----------------------------------|----------------------------------|
----------------------------------|----------------------------------|
----------------------------------|----------------------------------|
--5-5-5-5---------5-5-5-5-3-3-3-3-|--7-7-7-7---------7-7-7-7-3-3-3-3-|
----------------------------------|----------------------------------|


  S S S S S S S S S S S S S S S S    S S S S S S S S S S S S  S  S S S  
----------------------------------|------------------------------------|
----------------------------------|------------------------------------|
--7-7-7-7---------7-7-7-7-5-5-5-5-|--9-9-9-9---------9-9-9-9-10-10-9-9-|
----------------------------------|------------------------------------|
--5-5-5-5---------5-5-5-5-3-3-3-3-|--7-7-7-7---------7-7-7-7--8--8-7-7-|
----------------------------------|------------------------------------|
Tap to rate this tab
# A B C D E F G H I J K L M N O P Q R S T U V W X Y Z