Song name
# A B C D E F G H I J K L M N O P Q R S T U V W X Y Z

Chevelle - This Circus tab

Artist: Chevelle
Song: This Circus
Cd: Sci-Fi Crimes
Label: Epic
Tabbed by: MetalSlayer09
E-Mail: 09bpott@gmail.com

	Yeah this was a decently hard song to tab guys theres still
a bunch of gtrs in the background i haven't figured out yet but I'll
update that later.Anyhow suggestions welcome and e-mail me with your
chevelle requests...

tuning: Drop B

Intro part 1

--------------------------------------------------------------------|
--------------------------------------------------------------------|
--------------------------------------------------------------------|
--------------------------------------------------------------------|
--2-2-2-2--2-2-2-2-0-0-4-4-4-4--4-4-4-4-5-5-4-4--2-2-2-2--2-2-2-2---|
--2-2-2-2--2-2-2-2-0-0-4-4-4-4--4-4-4-4-5-5-4-4--2-2-2-2--2-2-2-2---|

--------------------------------[
--------------------------------[
--------------------------------[
--------------------------------[
-0-0-4-4-4-4--4-4-4-4-0-0-0-0---[
-0-0-4-4-4-4--4-4-4-4-0-0-0-0---[

intro part 2

this next part is basically the same as above except you play octaves
now

------------------------------------------------------------------|
------------------------------------------------------------------|
-9-9-9-9--9-9-9-9-7-7-7-7-11-11-11-11--11-11-11-11-12--12--11-11--|
------------------------------------------------------------------|
-7-7-7-7--7-7-7-7-5-5-5-5-9--9--9--9---9--9--9--9--10--10--9--9---|
------------------------------------------------------------------|

-----------------------------------------------------------[
-----------------------------------------------------------[
-9-9-9-9--9-9-9-9-7-7-7-7-11-11-11-11-11-11-11-11-7-7-7-7--[
-----------------------------------------------------------[
-7-7-7-7--7-7-7-7-5-5-5-5-9--9--9--9--9--9--9--9--5-5-5-5--[
-----------------------------------------------------------[

prechorus

---------------------------------------------------------------[
---------------------------------------------------------------[
---------------------------------------------------------------[
---------------------------------------------------------------[
-2-2--2-2--2-2-0--4-4--4-4--4-4-0--5-5--5-5--555-4-4-5-0-------[
-2-2--2-2--2-2-0--4-4--4-4--4-4-0--5-5--5-5--555-4-4-5-0-------[

chorus (nut sure on the pattern here but the notes are right)

------------------------------[
------------------------------[
------------------------------[
--2----2---12-12-12-10-10-10--[
--2----2---12-12-12-10-10-10--[
--2----2---12-12-12-10-10-10--[

verse

--------------------------------------------------------------------|
--------------------------------------------------------------------|
--------------------------------------------------------------------|
--------------------------------------------------------------------|
--------------------------------------------------------------------|
--2-2-2-2--2-2-2-2-0-0-4-4-4-4--4-4-4-4-5-5-4-4--2-2-2-2--2-2-2-2---|

--------------------------------[
--------------------------------[
--------------------------------[
--------------------------------[
--------------------------------[
-0-0-4-4-4-4--4-4-4-4-0-0-0-0---[

interlude

-(xhowever many)[---------------------------------------------------[
----------------[---------------------------------------------------[
----------------[---------------------------------------------------[
-2-2------------[--2-0-2-5-2-0-0-2-0-0-2-2-0-5---5-7-5----5-5-7-7-7-[
-2-2------------[--2-0-2-5-2-0-0-2-0-0-2-2-0-3-0-3-5-3----3-3-5-5-5-[
-2-2------------[--2-0-2-5-2-0-0-2-0-0-2-2-0---0------0-0-----------[

and the outro is just a variation of the intro with some mutes in it
so that ones not hard to figure out

lyrics:

What did I have to lose
Being Negative
I bled through the snow
Then never set down
It's clear for today
You're sleazy at night
And soon as we heal
We will Run
Or start swinging

For below they're begging for it
I'm on my way, never settle,
Always learning
People, they beg us for it
I'm on my way, almost there

This might just feed the
Mother of all our needs
Turning over here

Luck must fight over me
And never give in to
Weird out the soul
Replace it with salt
I live with in sight of
This medicine man how perfectly
I start swinging
We start swinging

'Cause this might just feed
The mother of all our needs
Turning over, heard it oh so clear
The mother off all our needs
Turning over, heard it oh so

Just run them off or grab and hold
Tap to rate this tab
# A B C D E F G H I J K L M N O P Q R S T U V W X Y Z