Song name
# A B C D E F G H I J K L M N O P Q R S T U V W X Y Z

Chevelle - Letter From A Thief tab

Artist: Chevelle
Song: Letter From A Thief
Cd: Sci-Fi Crimes
Label: Epic
Tabbed By: MetalSlayer09
E-mail: 09bpott@gmail.com

	I had a couple people ask me to tab this so here ya go fellas,
and as always corrections are welcome and feel free to ask me to tab
out some other Chevelle songs...

tuning: Drop B

Intro

----------------------------(X4)--[-5-------0--5-------0-[---------------[
----------------------------------[---6-3-6------6-3-6---[---------------[
--7-7-7-7-7---7-7--7-7-7-7---7-7--[----------------------[---10--10---5--[
----------------------------------[----------------------[---10--10---5--[
--5-5-5-5-6p5-5-5--5-5-5-6p5-5-5--[----------------------[---8---8----3--[
----------------------------------[----------------------[---------------[

Verse

----------------------------(X4)--[---------------[ Play all that twice
----------------------------------[---------------[
--7-7-7-7-7---7-7--7-7-7-7---7-7--[---10--10---5--[
--7-7-7-7-7---7-7--7-7-7-7---7-7--[---10--10---5--[
--5-5-5-5-6p5-5-5--5-5-5-6p5-5-5--[---8---8----3--[
----------------------------------[---------------[

Chorus

----------------------------------------------------------------------------|
----------------------------------------------------------------------------|
-10-10-10-10-10-10-10-10-10-10-10-10-10-------------------------------------|
-8--8--8--8--8--8--8--8--8--8--8--8--8--10-10-10-10-10-10-10-10-10-10-10-10-|
-8--8--8--8--8--8--8--8--8--8--8--8--8--10-10-10-10-10-10-10-10-10-10-10-10-|
-8--8--8--8--8--8--8--8--8--8--8--8--8--10-10-10-10-10-10-10-10-10-10-10-10-|

--------------------------------------------------------|
--------------------------------------------------------|
-------7-7-7-7-7-7-7-7-7-7-7-7-7-7-10-10-10-10-10-10-10-|
-10-10-7-7-7-7-7-7-7-7-7-7-7-7-7-7-10-10-10-10-10-10-10-|
-10-10-5-5-5-5-5-5-5-5-5-5-5-5-5-5-8--8--8--8--8--8--8--|
-10-10--------------------------------------------------|


-----------------------[---[
-----------------------[---[
-10-10-10-10-10-10-10--[---[
-10-10-10-10-10-10-10--[-7-[
-8--8--8--8--8--8--8---[-7-[
-----------------------[-7-[

interlude before "solo"

------------------------------------(X3)----------[-------------------------|
--------------------------------------------------[-------------------------|
--15-15-15-15-14-14-14-14-14-14-14-14-14-14-14-14-[-15-15-15-15-12-12-12-12-|
--------------------------------------------------[-------------------------|
--13-13-13-13-12-12-12-12-12-12-12-12-12-12-12-12-[-13-13-13-13-10-10-10-10-|
--------------------------------------------------[-------------------------|

----------------[
----------------[
-12-12-12-12-12-[
----------------[
-10-10-10-10-10-[
----------------[

-----------------------------[
-----------------------------[
-12-12-12--------------------[
-----------------------------[all that twice
-10-10-10--------------------[
-----------------------------[

and now the "solo"

-------------------------------------------------------------------|
-------------------------------------------------------------------|
--9b10-9b10r9p7-5-2-9b10-9b10b9p7-5-----5---5---9b10-9b10r9p7-5-2--|
------------------------------------0-0---0---0--------------------|
-------------------------------------------------------------------|
-------------------------------------------------------------------|

--------------------------------[
--------------------------------[
-9b10-9b10r9p7-5-----5----------[
-----------------0-0---0--10\8--[
--------------------------------[
--------------------------------[

post "Solo" (last prechorus)

---5---[(Xabunch)
-6---6-[
-------[
-------[
-------[
-------[

----------------------------------------------------------------------------|
----------------------------------------------------------------------------|
-10-10-10-10-10-10-10-10-10-10-10-10-10-------------------------------------|
-8--8--8--8--8--8--8--8--8--8--8--8--8--10-10-10-10-10-10-10-10-10-10-10-10-|
-8--8--8--8--8--8--8--8--8--8--8--8--8--10-10-10-10-10-10-10-10-10-10-10-10-|
-8--8--8--8--8--8--8--8--8--8--8--8--8--10-10-10-10-10-10-10-10-10-10-10-10-|

pm___________________________________________________________[

---------------------------------------------------[
---------------------------------------------------[
-7-7-7-7-7-7-7-7-7-7-7-7-10-10-10-10-10-10-10-10\--[
---------------------------------------------------[
-5-5-5-5-5-5-5-5-5-5-5-5-8--8--8--8--8--8--8--8\---[
---------------------------------------------------[

then play the chorus

outro
------[
------[
------[
-7-0--[
-7-0--[
-7-0--[

here are the lyrics as well

They know what everybody knows
Better sit, a letter from a thief says:
Finally while everybody sleeps
So few ways to
Cover up the old ruins
Lost in a finger forced to lie
This sends us medicating through it all

If you ever entered my mind
Stay there
You'll live
Defend it off or fool them all
Stay there
You'll live

Faceless, so little there to judge
Left wing let's
Separate the cold out
Opposites, we'll never need to tell
One string I've found I'm having to,
having to

Solitude, waste of man
This fades as soon as the sun sets

I now own this fatal role that lives
Imagine here's a better feel
Told to dissolve, or choose to fade
Or stay here you'll live
Tap to rate this tab
 
# A B C D E F G H I J K L M N O P Q R S T U V W X Y Z