Song name
# A B C D E F G H I J K L M N O P Q R S T U V W X Y Z

Chevelle - Sleep Apnea tab

SLEEP APNEA
Artist: Chevelle
Album: Sci-Fi Crimes
Tuning: Tune down 1 + a  steps down (low to high: C# F# B E G# C#)

 Intro
    Gtr I
||----------------------------|----------------------------|
||o---------------------------|---------------------------o|
||----------------------------|----------------------------|
||----------------------------|--------------5-------------|
||o-5------------7------------|-5-------------------------o|
||-----0----0-------0----0----|----0----0-------0----0-----|

   Gtrs I, II
                                                                 x4
|--------------------------------|--------------------------------||
|o-------------------------------|-------------------------------o||
|--------------------------------|--------------------------------||
|-----------5--------------------|----------5---------------------||
|o--------7---7----------7-8-7---|--------7---7----------7-8-7---o||
|--0--0-0-------0-0--0-0-------0-|-0--0-0-------0-0--0-0-------0--||

 Verse
   Gtr I
||-------------------------------|-------------------------------|
||-------------------------------|-------------------------------|
||-------------------------------|-------------------------------|
||----------5--------------------|----------5--------------------|
||--------7---7----------7-8-7---|--------7---7----------7-8-7---|
||-0--0-0-------0-0--0-0-------0-|-0--0-0-------0-0--0-0-------0-|
|
|  Gtr II
||-------------------------------|-------------------------------|
||-------------------------------|-------------------------------|
||-------------------------------|-------------------------------|
||-------------------------------|-------------------------------|
||-2-----------------------------|-(2)---------------------------|
||-0-----------------------------|-(0)---------------------------|
   ^ring out                        ^continue ringing

   Gtr I
                                                                 x5
|--------------------------------|--------------------------------||
|o-------------------------------|-------------------------------o||
|--------------------------------|--------------------------------||
|-----------5--------------------|----------5---------------------||
|o--------7---7----------7-8-7---|--------7---7----------7-8-7---o||
|--0--0-0-------0-0--0-0-------0-|-0--0-0-------0-0--0-0-------0--||
|
|  Gtr II
|--------------------------------|--------------------------------||
|o-------------------------------|-------------------------------o||
|--------------------------------|--------------------------------||
|--------------------------------|--------------------------------||
|o-(2)---------------------------|-(2)---------------------------o||
|--(0)---------------------------|-(0)----------------------------||
   ^continue ringing               ^continue ringing

 Chorus
    Gtrs I, II
||--------------------------|-------------------------|-------------------------|
||o-------------------------|-------------------------|-------------------------|
||--------------------------|-------------------------|-------------------------|
||--2--2--2--2--2--2--2--2--|-5--5--5--5--5--5--5--5--|-------------------------|
||o-0--0--0--0--0--0--0--0--|-3--3--3--3--3--3--3--3--|-5--5--5--5--5--5--5--5--|
||--------------------------|-------------------------|-3--3--3--3--3--3--3--3--|

|--------------------------||
|-------------------------o||
|--------------------------||
|-7--7--7--7--7--7--7--7---||
|-5--5--5--5--5--5--5--5--o||
|--------------------------||

Repeat verse
Repeat chorus

 Bridge
    Gtr I
                                                                  x4
||--------------------------------|--------------------------------|
||o-------------------------------|-------------------------------o|
||--------------------------------|--------------------------------|
||-----------5--------------------|----------5------------2---5----|
||o--------7---7----------7-8-7---|--------7---7----------0---3---o|
||--0--0-0-------0-0--0-0-------0-|-0--0-0-------0-0--0-0----------|

                                                         x3
|----------------------------|----------------------------|
|o---------------------------|---------------------------o|
|----------------------------|----------------------------|
|--5----4-------4----5----7--|-----------9------------9---|
|o-3----2----0--2----3----5--|-2----2----7--2----2----7--o|
|----------------------------|-0----0-------0----0--------|

|---------------------------|----------------------------|-----------------------------|
|---------------------------|o---------------------------|----------------------------o|
|---------------------------|----------------------------|-----------------------------|
|-5----4-------4----5----7--|------------9------------7--|-----------12------------7---|
|-3----2----0--2----3----5--|o-2----2----7--2----2----5--|-2----2----10--2----2----5--o|
|---------------------------|--0----0-------0----0-------|-0----0--------0----0--------|

|-------------------------------||
|-------------------------------||
|-------------------------------||
|-------------------------------||
|-2-----------------------------||
|-0-----------------------------||
  ^let ring for 8 bars

 Final chorus
    Gtr I
Repeat chorus x3

    Gtr II (clean)
||--12--------------12--------------|-10--------------10--------------|
||o-------12--------------12--------|-------12--------------12--------|
||--------------12--------------12--|-------------12--------------12--|
||----------------------------------|---------------------------------|
||o---------------------------------|---------------------------------|
||----------------------------------|---------------------------------|

                                                                    x3
|-------10--------12----10--------|-------10--------12------14-------||
|---------------------------------|---------------------12----------o||
|-12----------12--------------12--|-12----------12--------------12---||
|---------------------------------|----------------------------------||
|---------------------------------|---------------------------------o||
|---------------------------------|----------------------------------||

 Outro
    Gtr I
                                                                  x4
||--------------------------------|--------------------------------|
||o-------------------------------|-------------------------------o|
||--------------------------------|--------------------------------|
||-----------5--------------------|----------5------------2---5----|
||o--------7---7----------7-8-7---|--------7---7----------0---3---o|
||--0--0-0-------0-0--0-0-------0-|-0--0-0-------0-0--0-0----------|

|-------------------------------||
|-------------------------------||
|-------------------------------||
|-------------------------------||
|-2-----------------------------||
|-0-----------------------------||
Tap to rate this tab
 
# A B C D E F G H I J K L M N O P Q R S T U V W X Y Z