Song name
# A B C D E F G H I J K L M N O P Q R S T U V W X Y Z

Chevelle - Shameful Metaphors tab

song: Shameful Metephors
artist: CheVelle
label: EPic
Cd: Sci-Fi Crimes
tabbed by: MetalSlayer09
e-mail:09bpott@gmail.com

	this should be close like 99% or so, anyhow sorry 
i didn't put in how many times to strum each note but thats 
easy to figure out and, well, that takes a lot of time to write
into a tab. anyhow have fun and please rate!
 
tuning: drop db or drop c# however ya wanna look at it

intro
-----------------------------------------------------------------[
-----------------------------------------------------------------[
-9-9-9-9-9-9-9-9--5-5-5--2-2-2--9-9-9-9-9-9-9-9--5-5-5-4h5-4-0---[
-0-0-0-0-0-0-0-0--0-0-0--0-0-0--0-0-0-0-0-0-0-0--0-0-0-0-0-0-0---[
-----------------------------------------------------------------[
-----------------------------------------------------------------[

verse            prechorus
----------[------------------[
----------[------------------[
-7-4-2----[------------------[
-7-4-2----[--5-7-9-12--12--7-[
-5-2-0----[--5-7-9-12--12--7-[
----------[--5-7-9-12--12--7-[

chorus
-----------------------------------------------------[
-----------------------------------------------------[
-----------------------------------------------------[
-5--0-12-7-0--5--12-0-7-0--5--0-12-7-0--5--12-0-7-0--[
-5--0-12-7-0--5--12-0-7-0--5--0-12-7-0--5--12-0-7-0--[
-5--0-12-7-0--5--12-0-7-0--5--0-12-7-0--5--12-0-7-0--[

2nd verse harmonics

---7--------[
-----7------[
-7----------[
--------7---[
------------[
------------[

interlude

-----------------------------------------------[
-----------------------------------------------[
--------7---------9--------7--------4/5\4------[
-----------------------------------------------[
-0-0-0--5--0-0-0--7-0-0-0--5-0-0-0--2/3\2-0----[
-0-0-0-----0-0-0----0-0-0----0-0-0--------0----[

                           prechorus
--------------------------[--------[
--------------------------[--------[
--------11----------------[-9--11--[
-7/9-9--11-11-11\7-7--5-0-[-9--11--[
-7/9-9--9--11-11\7-7--5-0-[-7--9---[
-7/9-9-----11-11\7-7--5-0-[--------[

sorry if its a bit confusing but this was a bit rushed.
anyhow thanks for checking out the tab and if you would
like it see some of my other tabs i've already tabbed out 
most of sci-fi crimes...
Tap to rate this tab
# A B C D E F G H I J K L M N O P Q R S T U V W X Y Z