Song name
# A B C D E F G H I J K L M N O P Q R S T U V W X Y Z

Chevelle - Sma tab

Song: Sma
Artist: Chevelle
Album: Point #1
Tabbed by: patnb2
Email: patrick0189@yahoo.com

Tuning: D Standard (D G C F A D)

Like almost all of Point #1 (excluding Mia), Sma is played in D standard, not Drop D. 
If you don't believe me then go watch Pete play the song live on YouTube. 
Anyway here is the tab... this is about as close to perfect as it gets.


D|---------------------------------------------------------------------------|
A|---------------------------------------------------------------------------|
F|---------------------------------------------------------------------------|
C|---------------------------------------------------------------------------|
G|---------------------------------------------------------------------------|
D|-0-0-0-0-3-3-3-3-3-3-3-3-3-3h4-0-0-0-0-3-3-3-3-3-3-3-----------------------|

D|-3*------------------------------------------------------------------------|
A|-3*------------------0-----------------------------------------------------|
F|-3*------------------------------------------------------------------------|
C|-3*------------------------------------------------------------------------|
G|-3*------------------------------------------------------------------------|
D|-3*------------------------------------------------------------------------|

D|---------------------------------------------------------------------------|
A|---------------------------------------------------------------------------|
F|---------------------------------------------------------------------------|
C|-5-4-0-5-4-0-5-4-0-5-4-0-5----5-4-0-5-4-0-5-4-0-5-4-0-7-0------------------| 4x
G|-5-4-0-5-4-0-5-4-0-5-4-0-5----5-4-0-5-4-0-5-4-0-5-4-0-7-0------------------|
D|-3-2-0-3-2-0-3-2-0-3-2-0-3----3-2-0-3-2-0-3-2-0-3-2-0-5-0------------------|

D|---------------------------------------------------------------------------|
A|---------------------------------------------------------------------------|
F|-------------5-5-5-5/7------------------5-5-5-5/7--------------------------|
C|-------------5-5-5-5/7------------------5-5-5-5/7--------------------------|
G|-------------3-3-3-3/5------------------3-3-3-3/5--------------------------|
D|-0-0-6/7-7-7-----------0-0--0-0-6/7-7-7-----------0-0----------------------|

D|---------------------------------------------------------------------------|
A|---------------------------------------------------------------------------|
F|-------------5-5-5-5/7-7-7-------------------------------------------------|
C|-------------5-5-5-5/7-7-7-8-8-8-8-8-8-8-5-5-5-5-5-5-5---------------------|
G|-------------3-3-3-3/5-5-5-8-8-8-8-8-8-8-5-5-5-5-5-5-5---------------------|
D|-0-0-6/7-7-7---------------6-6-6-6-6-6-6-3-3-3-3-3-3-3---------------------|

D|---------------------------------------------------------------------------|
A|---------------------------------------------------------------------------|
F|-------------5-5-5-5/7------------------5-5-5-5-7--------------------------|
C|-2-2---------5-5-5-5/7------------------5-5-5-5-7--------------------------|
G|-2-2---------3-3-3-3/5------------------3-3-3-3/5--------------------------|
D|-0-0-6/7-7-7-----------0-0--0-0-6/7-7-7-----------0-0----------------------|
                                                                               3x
D|---------------------------------------------------------------------------|
A|---------------------------------------------------------------------------|
F|-------------5-5-5-5/7-7-7-------------------------------------------------|
C|-2-2---------5-5-5-5/7-7-7-------------------------------------------------|
G|-2-2---------3-3-3-3/5-5-5-------------------------------------------------|
D|-0-0-6/7-7-7---------------6-6-6-6-6-6-6-6-3-3-3-3-3-3-3-------------------|
                             . . . . . . . . . . . . . . .

D|---------------------------------------------------------------------------|
A|---------------------------------------------------------------------------|
F|---------------------------------------------------------------------------|
C|-2-2--2-2--2--/8-8-8-8-8-8-8-8-5-5-5-5-5-----------------------------------| 3x
G|-2-2--2-2--2--/8-8-8-8-8-8-8-8-5-5-5-5-5-----------------------------------|
D|-0-0--0-0--0--/6-6-6-6-6-6-6-6-3-3-3-3-3-----------------------------------|
   . .  . .  .

D|---------------------------------------------------------------------------|
A|---------------------------------------------------------------------------|
F|---------------------------------------------------------------------------|
C|-2-2--2-2--2-2--2-2--------------------------------------------------------|
G|-2-2--2-2--2-2--2-2--------------------------------------------------------|
D|-0-0--0-0--0-0--0-0--------------------------------------------------------|
   . .  . .  . .  . .

D|---------------------------------------------------------------------------|
A|---------------------------------------------------------------------------|
F|---------------------------------------------------------------------------|
C|-6-6-6-7\6-6-6-7\6-6-6-7\6-6-6-2-2-2-2-2-2-2-2-2-2-------------------------| x3
G|-6-6-6-7\6-6-6-7\6-6-6-7\6-6-6-2-2-2-2-2-2-2-2-2-2-------------------------|
D|-4-4-4-5\4-4-4-5\4-4-4-5\4-4-4-0-0-0-0-0-0-0-0-0-0-------------------------|

D|---------------------------------------------------------------------------|
A|---------------------------------------------------------------------------|
F|---------------------------------------------------------------------------|
C|-6-6-6-7\6-6-6-7\6-6-6-7\6-6-6-2222222222222222----------------------------|
G|-6-6-6-7\6-6-6-7\6-6-6-7\6-6-6-2222222222222222----------------------------|
D|-4-4-4-5\4-4-4-5\4-4-4-5\4-4-4-0000000000000000----------------------------|
                                 ................

D|---------------------------------------------------------------------------|
A|---------------------------------------------------------------------------|
F|---------------------------------------------------------------------------|
C|-6-6-6-7\6-6-6-7\6-6-6-7\6-6-6-2-2--2-2-2-2-2-2-2-2------------------------| x3
G|-6-6-6-7\6-6-6-7\6-6-6-7\6-6-6-2-2--2-2-2-2-2-2-2-2------------------------|
D|-4-4-4-5\4-4-4-5\4-4-4-5\4-4-4-0-0--0-0-0-0-0-0-0-0------------------------|

D|---------------------------------------------------------------------------|
A|---------------------------------------------------------------------------|
F|---------------------------------------------------------------------------|
C|-6-6-6-7\6-6-6-7\6-6-6-7\6-6-6-2-2--2-2------------------------------------|
G|-6-6-6-7\6-6-6-7\6-6-6-7\6-6-6-2-2--2-2------------------------------------|
D|-4-4-4-5\4-4-4-5\4-4-4-5\4-4-4-0-0--0-0------------------------------------|

D|---------------------------------------------------------------------------|
A|---------------------------------------------------------------------------|
F|-------------5-5-5-5/7------------------5-5-5-5/7--------------------------|
C|-2-2---------5-5-5-5/7------2-2---------5-5-5-5/7--------------------------|
G|-2-2---------3-3-3-3/5------2-2---------3-3-3-3/5--------------------------|
D|-0-0-6/7-7-7-----------0-0--0-0-6/7-7-7-----------0-0----------------------|

D|---------------------------------------------------------------------------|
A|---------------------------------------------------------------------------|
F|-------------5-5-5-5/7-7-7-------------------------------------------------|
C|-2-2---------5-5-5-5/7-7-7-8-8-8-8-8-8-8-5-5-5-5-5-5-5---------------------|
G|-2-2---------3-3-3-3/5-5-5-8-8-8-8-8-8-8-5-5-5-5-5-5-5---------------------|
D|-0-0-6/7-7-7---------------6-6-6-6-6-6-6-3-3-3-3-3-3-3---------------------|

D|---------------------------------------------------------------------------|
A|---------------------------------------------------------------------------|
F|-------------5-5-5-5/7------------------5-5-5-5-7--------------------------|
C|-2-2---------5-5-5-5/7------2-2---------5-5-5-5-7--------------------------|
G|-2-2---------3-3-3-3/5------2-2---------3-3-3-3/5--------------------------|
D|-0-0-6/7-7-7-----------0-0--0-0-6/7-7-7-----------0-0----------------------|
                                                                              
D|---------------------------------------------------------------------------|
A|---------------------------------------------------------------------------|
F|-------------5-5-5-5/7-7-7-------------------------------------------------|
C|-2-2---------5-5-5-5/7-7-7-------------------------------------------------|
G|-2-2---------3-3-3-3/5-5-5-------------------------------------------------|
D|-0-0-6/7-7-7---------------6-6-6-6-6-6-6-6-3-3-3-3-3-3-3-------------------|
                             . . . . . . . . . . . . . . .

D|---------------------------------------------------------------------------|
A|---------------------------------------------------------------------------|
F|-------------5-5-5-5/7------------------5-5-5-5/7--------------------------|
C|-2-2---------5-5-5-5/7------2-2---------5-5-5-5/7--------------------------|
G|-2-2---------3-3-3-3/5------2-2---------3-3-3-3/5--------------------------|
D|-0-0-6/7-7-7-----------0-0--0-0-6/7-7-7-----------0-0----------------------|

D|---------------------------------------------------------------------------|
A|---------------------------------------------------------------------------|
F|-------------5-5-5-5/7-7-7-------------------------------------------------|
C|-2-2---------5-5-5-5/7-7-7-8-8-8-8-8-8-8-5-5-5-5-5-5-5---------------------|
G|-2-2---------3-3-3-3/5-5-5-8-8-8-8-8-8-8-5-5-5-5-5-5-5---------------------|
D|-0-0-6/7-7-7---------------6-6-6-6-6-6-6-3-3-3-3-3-3-3---------------------|

D|---------------------------------------------------------------------------|
A|---------------------------------------------------------------------------|
F|-------------5-5-5-5/7------------------5-5-5-5-7--------------------------|
C|-2-2---------5-5-5-5/7------2-2---------5-5-5-5-7--------------------------|
G|-2-2---------3-3-3-3/5------2-2---------3-3-3-3/5--------------------------|
D|-0-0-6/7-7-7-----------0-0--0-0-6/7-7-7-----------0-0----------------------|
                                                                              
D|---------------------------------------------------------------------------|
A|---------------------------------------------------------------------------|
F|-------------5-5-5-5/7-7-7-------------------------------------------------|
C|-2-2---------5-5-5-5/7-7-7-------------------------------------------------|
G|-2-2---------3-3-3-3/5-5-5-------------------------------------------------|
D|-0-0-6/7-7-7---------------6-6-6-6-6-6-6-6-3-3-3-3-3-3-3-------------------|
                             . . . . . . . . . . . . . . .

D|---------------------------------------------------------------------------|
A|---------------------------------------------------------------------------|
F|---------------------------------------------------------------------------|
C|-2-2--2-2--2---------------------------------------------------------------|
G|-2-2--2-2--2---------------------------------------------------------------|
D|-0-0--0-0--0---------------------------------------------------------------|
   . .  . .  .

D|---------------------------------------------------------------------------|
A|---------------------------------------------------------------------------|
F|---------------------------------------------------------------------------|
C|-5-4-0-5-4-0-5-4-0-5-4-0-5----5-4-0-5-4-0-5-4-0-5-4-0-7-0------------------| x5
G|-5-4-0-5-4-0-5-4-0-5-4-0-5----5-4-0-5-4-0-5-4-0-5-4-0-7-0------------------|
D|-3-2-0-3-2-0-3-2-0-3-2-0-3----3-2-0-3-2-0-3-2-0-3-2-0-5-0------------------|

D|---------------------------------------------------------------------------|
A|---------------------------------------------------------------------------|
F|---------------------------------------------------------------------------|
C|-5-4-0-5-4-0-5-4-0-5-4-0-5----5-4-0-5-4-0-5-4-0-5-4-0-2-2-2----------------|
G|-5-4-0-5-4-0-5-4-0-5-4-0-5----5-4-0-5-4-0-5-4-0-5-4-0-2-2-2----------------|
D|-3-2-0-3-2-0-3-2-0-3-2-0-3----3-2-0-3-2-0-3-2-0-3-2-0-0-0-0----------------|
                                                        . . 

************************************

| .   palm mute
| /   slide up
| \   slide down
| h   hammer-on
| *   harmonic

************************************
Tap to rate this tab
# A B C D E F G H I J K L M N O P Q R S T U V W X Y Z