Song name
# A B C D E F G H I J K L M N O P Q R S T U V W X Y Z

Chevelle - Roswells Spell tab

song:Roswell's Spell
Artist: CheVelle
LAbel: EPic
Tabber: MetalSLayer09
e-mail:09bpott@gmail.com


drop b

verse

(2's played fast, sounds like 1 note)

Life, Itís always overblown
--------------------------------------------------------------------------5-5-5-5-5-|
--------------------------------5-5-5-5-5---------------------------------5-5-5-5-5-|
--------------------------------4-4-4-4-4---------------------------------2-2-2-2-2-|
-2-2-2-2--2-2-2-2--2-2-2-2--x-2-2-2-2-2-2--2-2-2-2--2-2-2-2--2-2-2-2--x-2-----------|
-2-2-2-2--2-2-2-2--2-2-2-2--x-2------------2-2-2-2--2-2-2-2--2-2-2-2--x-2-----------|
-2-2-2-2--2-2-2-2--2-2-2-2--x-2------------2-2-2-2--2-2-2-2--2-2-2-2--x-2-----------|

Till we wake up create some other needs
--------------------------------------------------------------------------5-5-5-5-5-|
--------------------------------5-5-5-5-5---------------------------------5-5-5-5-5-|
--------------------------------4-4-4-4-4---------------------------------2-2-2-2-2-|
-2-2-2-2--2-2-2-2--2-2-2-2--x-2-2-2-2-2-2--2-2-2-2--2-2-2-2--2-2-2-2--x-2-----------|
-2-2-2-2--2-2-2-2--2-2-2-2--x-2------------2-2-2-2--2-2-2-2--2-2-2-2--x-2-----------|
-2-2-2-2--2-2-2-2--2-2-2-2--x-2------------2-2-2-2--2-2-2-2--2-2-2-2--x-2-----------|

yeah well, cries, heard from man that knows
--------------------------------------------------------------------------5-5-5-5-5-|
--------------------------------5-5-5-5-5---------------------------------5-5-5-5-5-|
--------------------------------4-4-4-4-4---------------------------------2-2-2-2-2-|
-2-2-2-2--2-2-2-2--2-2-2-2--x-2-2-2-2-2-2--2-2-2-2--2-2-2-2--2-2-2-2--x-2-----------|
-2-2-2-2--2-2-2-2--2-2-2-2--x-2------------2-2-2-2--2-2-2-2--2-2-2-2--x-2-----------|
-2-2-2-2--2-2-2-2--2-2-2-2--x-2------------2-2-2-2--2-2-2-2--2-2-2-2--x-2-----------|

Let to witness, the cat upon a ledge
--------------------------------------------------------------------------5-5-5-5-5-|
--------------------------------5-5-5-5-5---------------------------------5-5-5-5-5-|
--------------------------------4-4-4-4-4---------------------------------2-2-2-2-2-|
-2-2-2-2--2-2-2-2--2-2-2-2--x-2-2-2-2-2-2--2-2-2-2--2-2-2-2--2-2-2-2--x-2-----------|
-2-2-2-2--2-2-2-2--2-2-2-2--x-2------------2-2-2-2--2-2-2-2--2-2-2-2--x-2-----------|
-2-2-2-2--2-2-2-2--2-2-2-2--x-2------------2-2-2-2--2-2-2-2--2-2-2-2--x-2-----------|

Heats source rained down dyad Scout craft
--------------------------------------------------------------------------5-5-5-5-5-|
--------------------------------5-5-5-5-5---------------------------------5-5-5-5-5-|
--------------------------------4-4-4-4-4---------------------------------2-2-2-2-2-|
-2-2-2-2--2-2-2-2--2-2-2-2--x-2-2-2-2-2-2--2-2-2-2--2-2-2-2--2-2-2-2--x-2-----------|
-2-2-2-2--2-2-2-2--2-2-2-2--x-2------------2-2-2-2--2-2-2-2--2-2-2-2--x-2-----------|
-2-2-2-2--2-2-2-2--2-2-2-2--x-2------------2-2-2-2--2-2-2-2--2-2-2-2--x-2-----------|

Hands reveal a meeting, but did they come?
--------------------------------------------------------------------------5-5-5-5-5-|
--------------------------------5-5-5-5-5---------------------------------5-5-5-5-5-|
--------------------------------4-4-4-4-4---------------------------------2-2-2-2-2-|
-2-2-2-2--2-2-2-2--2-2-2-2--x-2-2-2-2-2-2--2-2-2-2--2-2-2-2--2-2-2-2--x-2-----------|
-2-2-2-2--2-2-2-2--2-2-2-2--x-2------------2-2-2-2--2-2-2-2--2-2-2-2--x-2-----------|
-2-2-2-2--2-2-2-2--2-2-2-2--x-2------------2-2-2-2--2-2-2-2--2-2-2-2--x-2-----------|

prechorus

So I look at the eyes, straight to the soul doorway
I look at the eyes, to know all you know
-12----------------12----------------12-----------------------|
----12-----------------12---------------12-----------------12-|
-------12----12-----------12----12---------12----12-----12----|
----------14-----------------14---------------14-----12-------|
--------------------------------------------------------------|
--------------------------------------------------------------|

verse

Find an other labeled hoaxes
--------------------------------------------------------------------------5-5-5-5-5-|
--------------------------------5-5-5-5-5---------------------------------5-5-5-5-5-|
--------------------------------4-4-4-4-4---------------------------------2-2-2-2-2-|
-2-2-2-2--2-2-2-2--2-2-2-2--x-2-2-2-2-2-2--2-2-2-2--2-2-2-2--2-2-2-2--x-2-----------|
-2-2-2-2--2-2-2-2--2-2-2-2--x-2------------2-2-2-2--2-2-2-2--2-2-2-2--x-2-----------|
-2-2-2-2--2-2-2-2--2-2-2-2--x-2------------2-2-2-2--2-2-2-2--2-2-2-2--x-2-----------|

Just as Roswell found another link
--------------------------------------------------------------------------5-5-5-5-5-|
--------------------------------5-5-5-5-5---------------------------------5-5-5-5-5-|
--------------------------------4-4-4-4-4---------------------------------2-2-2-2-2-|
-2-2-2-2--2-2-2-2--2-2-2-2--x-2-2-2-2-2-2--2-2-2-2--2-2-2-2--2-2-2-2--x-2-----------|
-2-2-2-2--2-2-2-2--2-2-2-2--x-2------------2-2-2-2--2-2-2-2--2-2-2-2--x-2-----------|
-2-2-2-2--2-2-2-2--2-2-2-2--x-2------------2-2-2-2--2-2-2-2--2-2-2-2--x-2-----------|

Reform witness, night abductions
--------------------------------------------------------------------------5-5-5-5-5-|
--------------------------------5-5-5-5-5---------------------------------5-5-5-5-5-|
--------------------------------4-4-4-4-4---------------------------------2-2-2-2-2-|
-2-2-2-2--2-2-2-2--2-2-2-2--x-2-2-2-2-2-2--2-2-2-2--2-2-2-2--2-2-2-2--x-2-----------|
-2-2-2-2--2-2-2-2--2-2-2-2--x-2------------2-2-2-2--2-2-2-2--2-2-2-2--x-2-----------|
-2-2-2-2--2-2-2-2--2-2-2-2--x-2------------2-2-2-2--2-2-2-2--2-2-2-2--x-2-----------|

You always felt a meaning, but did they come?
--------------------------------------------------------------------------5-5-5-5-5-|
--------------------------------5-5-5-5-5---------------------------------5-5-5-5-5-|
--------------------------------4-4-4-4-4---------------------------------2-2-2-2-2-|
-2-2-2-2--2-2-2-2--2-2-2-2--x-2-2-2-2-2-2--2-2-2-2--2-2-2-2--2-2-2-2--x-2-----------|
-2-2-2-2--2-2-2-2--2-2-2-2--x-2------------2-2-2-2--2-2-2-2--2-2-2-2--x-2-----------|
-2-2-2-2--2-2-2-2--2-2-2-2--x-2------------2-2-2-2--2-2-2-2--2-2-2-2--x-2-----------|

Heats source rained down dyad Scout craft
--------------------------------------------------------------------------5-5-5-5-5-|
--------------------------------5-5-5-5-5---------------------------------5-5-5-5-5-|
--------------------------------4-4-4-4-4---------------------------------2-2-2-2-2-|
-2-2-2-2--2-2-2-2--2-2-2-2--x-2-2-2-2-2-2--2-2-2-2--2-2-2-2--2-2-2-2--x-2-----------|
-2-2-2-2--2-2-2-2--2-2-2-2--x-2------------2-2-2-2--2-2-2-2--2-2-2-2--x-2-----------|
-2-2-2-2--2-2-2-2--2-2-2-2--x-2------------2-2-2-2--2-2-2-2--2-2-2-2--x-2-----------|

prechorus

So I look at the eyes, straight to the soul doorway
I look at the eyes, to know all you know
-12----------------12----------------12-----------------------|
----12-----------------12---------------12-----------------12-|
-------12----12-----------12----12---------12----12-----12----|
----------14-----------------14---------------14-----12-------|
--------------------------------------------------------------|
--------------------------------------------------------------|


chorus

And theres a why Im burning out inside
---------------------------------------------------------------|
---------------------------------------------------------------|
-9-9-9-9-9-9-9-9-9-9-9-9-9-9-9-9-9-5-5-5-5-5-5-----------------|
-9-9-9-9-9-9-9-9-9-9-9-9-9-9-9-9-9-5-5-5-5-5-5-7-7-7-7-7-7-7-7-|
-7-7-7-7-7-7-7-7-7-7-7-7-7-7-7-7-7-3-3-3-3-3-3-7-7-7-7-7-7-7-7-|
-----------------------------------------------7-7-7-7-7-7-7-7-|

With a need to know
-------------------------------------------------------------------|
-------------------------------------------------------------------|
-9-9-9-9-9-9-9-9-9-9-9-9-9-9-9-9-----------------------------------|
-9-9-9-9-9-9-9-9-9-9-9-9-9-9-9-9-10-10-10-10-10-10-5-5-5-5-5-5-5-5-|
-7-7-7-7-7-7-7-7-7-7-7-7-7-7-7-7-10-10-10-10-10-10-5-5-5-5-5-5-5-5-|
---------------------------------10-10-10-10-10-10-5-5-5-5-5-5-5-5-|

One self, Well Im burning out inside
---------------------------------------------------------------|
---------------------------------------------------------------|
-9-9-9-9-9-9-9-9-9-9-9-9-9-9-9-9-9-5-5-5-5-5-5-----------------|
-9-9-9-9-9-9-9-9-9-9-9-9-9-9-9-9-9-5-5-5-5-5-5-7-7-7-7-7-7-7-7-|
-7-7-7-7-7-7-7-7-7-7-7-7-7-7-7-7-7-3-3-3-3-3-3-7-7-7-7-7-7-7-7-|
-----------------------------------------------7-7-7-7-7-7-7-7-|

With a need to know
-------------------------------------------------------------------|
-------------------------------------------------------------------|
-9-9-9-9-9-9-9-9-9-9-9-9-9-9-9-9-----------------------------------|
-9-9-9-9-9-9-9-9-9-9-9-9-9-9-9-9-10-10-10-10-10-10-5-5-5-5-5-5-5-5-|
-7-7-7-7-7-7-7-7-7-7-7-7-7-7-7-7-10-10-10-10-10-10-5-5-5-5-5-5-5-5-|
---------------------------------10-10-10-10-10-10-5-5-5-5-5-5-5-5-|

post chorus

Does anybody really see anything?
Does anybody really see anyone?
-----------------------[
-----------------------[
-9----------9----------[
-9-10--5-9--9--10-5-9--[
-7-10--5-9--7--10-5-9--[
---10--5-9-----10-5-9--[

interlude


----------------------------[
-------5*---5*-5*~~~~~~~----[
----5*----------------------[
-5*-------------------------[
----------------------------[
----------------------------[


------------------------------------------------------------------------------|
------------------------------------------------------------------------------|
------------------------------------------------------------------------------|
-2-0-2-5-2-0-2-0-2-5-2-0---2-0-2-5-2-0-2-0-2-5-2-0---2-0-2-5-2-0-2-0-2-5-2-0--|
-2-0-2-5-2-0-2-0-2-5-2-0---2-0-2-5-2-0-2-0-2-5-2-0---2-0-2-5-2-0-2-0-2-5-2-0--|
-2-0-2-5-2-0-2-0-2-5-2-0---2-0-2-5-2-0-2-0-2-5-2-0---2-0-2-5-2-0-2-0-2-5-2-0--|
               ____pm___                 ____pm___                 ____pm____

--------------------------|
--------------------------|
--------------------------|
-2-0-2-5-2-0-2-0-2-5-2-0--|
-2-0-2-5-2-0-2-0-2-5-2-0--|
-2-0-2-5-2-0-2-0-2-5-2-0--|
               ____pm____

LIGHTS TWO MILES WIDE
--------------------------5*------------------------------------------------5*---------------------|
--------------------------5*------------------------------------------------5*---------------------|
-9-9-9--------------------5*--7-7-7--5-5-5---------9-9-9--------------------5*--7-7-7--5-5-5-------|
-9-9-9--10-10-10--5-5-5-0-----7-7-7--5-5-5--5-5-5--9-9-9--10-10-10--5-5-5-0-----7-7-7--5-5-5--5-5-5|
-7-7-7--10-10-10--5-5-5-0-----5-5-5--3-3-3--5-5-5--7-7-7--10-10-10--5-5-5-0-----5-5-5--3-3-3--5-5-5|
--------10-10-10--5-5-5-0-------------------5-5-5---------10-10-10--5-5-5-0-------------------5-5-5|

Felt it lift, Felt it pull
--------------------------5*------------------------------------------------5*---------------------|
--------------------------5*------------------------------------------------5*---------------------|
-9-9-9--------------------5*--7-7-7--5-5-5---------9-9-9--------------------5*--7-7-7--5-5-5-------|
-9-9-9--10-10-10--5-5-5-0-----7-7-7--5-5-5--5-5-5--9-9-9--10-10-10--5-5-5-0-----7-7-7--5-5-5--5-5-5|
-7-7-7--10-10-10--5-5-5-0-----5-5-5--3-3-3--5-5-5--7-7-7--10-10-10--5-5-5-0-----5-5-5--3-3-3--5-5-5|
--------10-10-10--5-5-5-0-------------------5-5-5---------10-10-10--5-5-5-0-------------------5-5-5|

chorus

And theres a why Im burning out inside
---------------------------------------------------------------|
---------------------------------------------------------------|
-9-9-9-9-9-9-9-9-9-9-9-9-9-9-9-9-9-5-5-5-5-5-5-----------------|
-9-9-9-9-9-9-9-9-9-9-9-9-9-9-9-9-9-5-5-5-5-5-5-7-7-7-7-7-7-7-7-|
-7-7-7-7-7-7-7-7-7-7-7-7-7-7-7-7-7-3-3-3-3-3-3-7-7-7-7-7-7-7-7-|
-----------------------------------------------7-7-7-7-7-7-7-7-|

With a need to know
-------------------------------------------------------------------|
-------------------------------------------------------------------|
-9-9-9-9-9-9-9-9-9-9-9-9-9-9-9-9-----------------------------------|
-9-9-9-9-9-9-9-9-9-9-9-9-9-9-9-9-10-10-10-10-10-10-5-5-5-5-5-5-5-5-|
-7-7-7-7-7-7-7-7-7-7-7-7-7-7-7-7-10-10-10-10-10-10-5-5-5-5-5-5-5-5-|
---------------------------------10-10-10-10-10-10-5-5-5-5-5-5-5-5-|

One self, Well Im burning out inside
---------------------------------------------------------------|
---------------------------------------------------------------|
-9-9-9-9-9-9-9-9-9-9-9-9-9-9-9-9-9-5-5-5-5-5-5-----------------|
-9-9-9-9-9-9-9-9-9-9-9-9-9-9-9-9-9-5-5-5-5-5-5-7-7-7-7-7-7-7-7-|
-7-7-7-7-7-7-7-7-7-7-7-7-7-7-7-7-7-3-3-3-3-3-3-7-7-7-7-7-7-7-7-|
-----------------------------------------------7-7-7-7-7-7-7-7-|

With a need to know
-------------------------------------------------------------------|
-------------------------------------------------------------------|
-9-9-9-9-9-9-9-9-9-9-9-9-9-9-9-9-----------------------------------|
-9-9-9-9-9-9-9-9-9-9-9-9-9-9-9-9-10-10-10-10-10-10-5-5-5-5-5-5-5-5-|
-7-7-7-7-7-7-7-7-7-7-7-7-7-7-7-7-10-10-10-10-10-10-5-5-5-5-5-5-5-5-|
---------------------------------10-10-10-10-10-10-5-5-5-5-5-5-5-5-|

And thereís a why Im burning out inside
---------------------------------------------------------------|
---------------------------------------------------------------|
-9-9-9-9-9-9-9-9-9-9-9-9-9-9-9-9-9-5-5-5-5-5-5-----------------|
-9-9-9-9-9-9-9-9-9-9-9-9-9-9-9-9-9-5-5-5-5-5-5-7-7-7-7-7-7-7-7-|
-7-7-7-7-7-7-7-7-7-7-7-7-7-7-7-7-7-3-3-3-3-3-3-7-7-7-7-7-7-7-7-|
-----------------------------------------------7-7-7-7-7-7-7-7-|

With a need to know
-------------------------------------------------------------------|
-------------------------------------------------------------------|
-9-9-9-9-9-9-9-9-9-9-9-9-9-9-9-9-----------------------------------|
-9-9-9-9-9-9-9-9-9-9-9-9-9-9-9-9-10-10-10-10-10-10-5-5-5-5-5-5-5-5-|
-7-7-7-7-7-7-7-7-7-7-7-7-7-7-7-7-10-10-10-10-10-10-5-5-5-5-5-5-5-5-|
---------------------------------10-10-10-10-10-10-5-5-5-5-5-5-5-5-|

One self, Well Im burning out inside
---------------------------------------------------------------|
---------------------------------------------------------------|
-9-9-9-9-9-9-9-9-9-9-9-9-9-9-9-9-9-5-5-5-5-5-5-----------------|
-9-9-9-9-9-9-9-9-9-9-9-9-9-9-9-9-9-5-5-5-5-5-5-7-7-7-7-7-7-7-7-|
-7-7-7-7-7-7-7-7-7-7-7-7-7-7-7-7-7-3-3-3-3-3-3-7-7-7-7-7-7-7-7-|
-----------------------------------------------7-7-7-7-7-7-7-7-|

With a need to know
-------------------------------------------------------------------|
-------------------------------------------------------------------|
-9-9-9-9-9-9-9-9-9-9-9-9-9-9-9-9-----------------------------------|
-9-9-9-9-9-9-9-9-9-9-9-9-9-9-9-9-10-10-10-10-10-10-5-5-5-5-5-5-5-5-|
-7-7-7-7-7-7-7-7-7-7-7-7-7-7-7-7-10-10-10-10-10-10-5-5-5-5-5-5-5-5-|
---------------------------------10-10-10-10-10-10-5-5-5-5-5-5-5-5-|

outro

Does anybody really see anything?
Does anybody really see anyone?
-----------------------|
-----------------------|
-9----------9----------|
-9-10--5-9--9--10-5-9--|
-7-10--5-9--7--10-5-9--|
---10--5-9-----10-5-9--|


Does anybody really see anything?
Does anybody really see anyone?
-----------------------[
-----------------------[
-9----------9----------[
-9-10--5-9--9--10-5-9--[
-7-10--5-9--7--10-5-9--[
---10--5-9-----10-5-9--[
Tap to rate this tab
# A B C D E F G H I J K L M N O P Q R S T U V W X Y Z