Song name
# A B C D E F G H I J K L M N O P Q R S T U V W X Y Z

Chevelle - The Red Acoustic tab

Artist: Chevelle
Song: The Red
Album: Wonder What's Next
Tuning: Db Gb B E Ab db
Tabber: Mike Heese

I know, there isn't an acoustic version of this song, but I arranged one
anyway. So stick that in your juice-box and suck it! No seriously, it's really
easy to play and it follows the rhythm of the original so it should be fairly
simple. if you have any problems playing it, just watch my youtube video:
"chevelle- the red acoustic cover" by buttonmastah. so here is the moment
you've all been waiting for!


Intro/Verse
|---------------------------------------------|
|o-------------------------------------------o|
|---------------------------------------------|
|------0--------0---0-------0---------0----0--|
|o---7---9\----5---5------7---9/----10---10--o|
|--0-------0-3----------0-------0-8-----------|

Chorus (Same strumming pattern as original)
|-0-|-3-|-5-|---2-|
|-0-|-3-|-5-|---3-|
|-0-|-4-|-7-|-2h4-|
|-2-|-5-|-7-|-2h4-|
|-2-|-5-|-5-|-0h2-|
|-0-|-3-|-5-|-----|

Bridge
|--------------------------------------------------------|
|---0--0--0--0--0--0--0--0--0--0--0--0--0--0--0--0--0--0-|
|--0--0--0--0--0--0--0--0--0--0--0--0--0--0--0--0--0--0--|
|-9--9--9--9--9--9--9--0--2--2--2--2--2--2--2--2--2--2---|
|--------------------------------------------------------|
|--------------------------------------------------------|

|------------------------------------------------------------|
|---0--0--0--0---0---0---0---0--0--0--0--0--0--0--0--0--0--0-|
|--0--0--0--0---0---0---0---0--0--0--0--0--0--0--0--0--0--0--|
|-9--9--9--9--12--12--10--10-02--2--2--2--2--2--2--2--2--2---|
|------------------------------------------------------------|
|------------------------------------------------------------|

Outro
|-------------------------------------------------------------------|
|-------------------------------------------------------------------|
|-------------------------------------------------------------------|
|------0--------0---0-------0--------0----0-------------------------|
|---7---9\----5---5------7---9/----10---10--10-10-xx-xx-10-10-xx-xx-|
|-0-------0-3----------0-------0-8----------8--8--xx-xx-8--8--xx-xx-|

|-----------------0-|
|-----------------0-|
|-----------------0-|
|-----------------2-|
|-9-9-xx-xx-9-9---2-|
|-7-7-xx-xx-7-7---0-|

Song Order
Intro/Verse x6
Chorus x1
Intro/Verse x10
Chorus x1
Bridge x1
Chorus x2
Intro/Verse x4
Outro x1

Thank you for viewing!!!
Tap to rate this tab
 
# A B C D E F G H I J K L M N O P Q R S T U V W X Y Z