Song name
# A B C D E F G H I J K L M N O P Q R S T U V W X Y Z

Chevelle - The Red tab

dropped D tunning.(D,A,D,G,B,e)
maybe even tunned another half
step down to (Db,Ab,Db,Gb,Bb,eb)

intro
e|--------------------------------------|
B|--------------------------------------|
G|--------------------------------------|
D|-0-----0-3-3-0-3h5--0-----0-8-8-8h10--|
A|-0-5h7-0-3-3-0-3h5--0-5h7-0-8-8-8h10--|
D|-0-----0-3-3-0-3h5--0-----0-8-8-8h10--|
                             they say

verse
e|--------------------------------------|
B|--------------------------------------|
G|--------------------------------------|
D|-0-----0-3-3-0-3h5--0-----0-8-8-8h10--|
A|-0-5h7-0-3-3-0-3h5--0-5h7-0-8-8-8h10--|
D|-0-----0-3-3-0-3h5--0-----0-8-8-8h10--|
  p.m..................................

chorus (listen for timing. let each chord ring)
e|---------------------------------------------------------|
B|---------------------------------------------------------|
G|---------------------------------------------------------|
D|-0--0--3--3--10--10--10--10--0--0--3--3--10--10--5h77777-|
A|-0--0--3--3--10--10--10--10--0--0--3--3--10--10--5h77777-|
D|-0--0--3--3--10--10--10--10--0--0--3--3--10--10--5h77777-|
   down  the threat is real.............red agian

e|--------------------------------------|
B|--------------------------------------|
G|--------------------------------------|
D|-0-----0-3-3-0-3h5--0-----0-8-8-8h10--|
A|-0-5h7-0-3-3-0-3h5--0-5h7-0-8-8-8h10--|
D|-0-----0-3-3-0-3h5--0-----0-8-8-8h10--|
    seeing red again

solo: ?

before ending
e|---------------------------|
B|---------------------------|
G|---------------------------|
D|-8-8----8-8----7-7----7-7--|
A|-8-8----8-8----7-7----7-7--|
D|-8-8----8-8----7-7----7-7--|

finish w/
e|--------------------------------------|
B|--------------------------------------|
G|--------------------------------------|
D|-0-----0-3-3-0-3h5--0-----0-8-8-8h10--|
A|-0-5h7-0-3-3-0-3h5--0-5h7-0-8-8-8h10--|
D|-0-----0-3-3-0-3h5--0-----0-8-8-8h10--|
they say


lyrics
"The Red"

They say freak
When your singled out 
The red... 
It filters through 

So lay down 
The threat is real 
When his sight
Goes red again 

Seeing red again 

This change 
He won't contain 
Slip away 
To clear your mind 
When asked 
What made it show? 
The truth 
He can't send to most 

Seeing red again 

They say freak 
When your singled out 
The red.... 
It filters through
Tap to rate this tab
 
# A B C D E F G H I J K L M N O P Q R S T U V W X Y Z