Song name
# A B C D E F G H I J K L M N O P Q R S T U V W X Y Z

Chevelle - The Red tab

                                   "The Red" 

: Standard C# , Which is : C# F# B E G# C#  

Main riff, verse is palm muted.
C#------------------------------------------------
G#------------------------------------------------
E ------------------------------------------------
B ------------------------------------------------
F#--7--7-9-7---5--5---5/7--7--7-9-7--10-10--10----
C#--0--0-0-0-0-3--3-0-3/5--0--0-0-0-0-8--8-0-8-0--

Chorus, the rhythm is easy to get, so I won't bother typing it out.
C#-------------------------------
G#-------------------------------
E --------7----------7-----------
B --2--5--7----2--5--7--7/9-9-9--
F#--2--5--5----2--5--5--7/9-9-9--
C#--0--3-------0--3-----5/7-7-7--

Solo, tremelo pick harmonics
C#------------
G#------------
E ------------
B ------------
F#-------<7>--
C#--<7>-------

Then back to the main riff, and at the end is this.
C#---------------------------------------------------------
G#---------------------------------------------------------
E ---------------------------------------------------------
B --10-10-x-x-x-x-10-10-x-x-x-x-9-9-x-x-x-x-9-9-x-x-x-x----
F#--10-10-x-x-x-x-10-10-x-x-x-x-9-9-x-x-x-x-9-9-x-x-x-x-7--
C#---8--8-x-x-x-x--8--8-x-x-x-x-7-7-x-x-x-x-7-7-x-x-x-x-0--


                         The End
Tap to rate this tab
 
# A B C D E F G H I J K L M N O P Q R S T U V W X Y Z