Song name
# A B C D E F G H I J K L M N O P Q R S T U V W X Y Z

Chevelle - The Red tab

intro
e|--------------------------------------|
B|--------------------------------------|
G|--------------------------------------|
D|-0-------0-3-3-3-3-3-0-0-------0-3-3--|
A|-0-5-7-5-0-3-3-3-3-3-0-0-5-7-5-0-3-3--|
D|-0-0-0-0-0-3-3-3-3-3-0-0-0-0-0-0-3-3--|
                             they say

verse same as intro, but Palm muted

chorus (listen for timing. let each chord ring)
e|---------------------------------------------------------|
B|---------------------------------------------------------|
G|---------------------------------------------------------|
D|-0--0--3--3--10--10--10--10--0--0--3--3--10--10--5h77777-|
A|-0--0--3--3--10--10--10--10--0--0--3--3--10--10--5h77777-|
D|-0--0--3--3--10--10--10--10--0--0--3--3--10--10--5h77777-|
   down  the threat is real.............red agian

e|--------------------------------------|
B|--------------------------------------|
G|--------------------------------------|
D|-0-----0-3-3-0-3h5--0-----0-8-8-8h10--|
A|-0-5h7-0-3-3-0-3h5--0-5h7-0-8-8-8h10--|
D|-0-----0-3-3-0-3h5--0-----0-8-8-8h10--|
    seeing red again



before ending
e|---------------------------|
B|---------------------------|
G|---------------------------|
D|-8-8----8-8----7-7----7-7--|
A|-8-8----8-8----7-7----7-7--|
D|-8-8----8-8----7-7----7-7--|

finish w/
e|--------------------------------------|
B|--------------------------------------|
G|--------------------------------------|
D|-0-----0-3-3-0-3h5--0-----0-8-8-8h10--|
A|-0-5h7-0-3-3-0-3h5--0-5h7-0-8-8-8h10--|
D|-0-----0-3-3-0-3h5--0-----0-8-8-8h10--|
they say

Tap to rate this tab
# A B C D E F G H I J K L M N O P Q R S T U V W X Y Z