Chevelle - Midnight To Midnight tab

-----------------------------------------------------------------------------
			     MIDNIGHT TO MIDNIGHT - Chevelle
------------------------------------------------------------------------------
Tabbed by: iHeritik
Band: Chevelle
Song: Midnight to Midnight
Album: Vena Sera
Tuning: Drop A# (A# F A# D# G C)

I would suggest listening to the song before trying to learn this tab, 
even though it does seem fairly simple, it could still help. Just a
suggestion though. 
Note than on the Chorus, when it shows 10x13, 
it DOES NOT mean hit 10 once, palm mute and then hit 13, it means hit 
10 thirteen times. There are other notes like this in this tab, so 
just be aware please.

INTRO
|------------------------------------------------------------------|
|------------------------------------------------------------------|
|------------------------------------------------------------------|
|------------------------------------------------------------------|Repeat 4x
|---5--333---------------------------------------------------------|
|--------------0-8-0--0-7-0--0-8-0---------------------------------|


SECOND PART
|------------------------------------------------------------------|
|------------------------------------------------------------------|
|----------------------------5--333--------------------------------|
|--0-8-0--0-7-0--0-8-0-------5--333--------------------------------|Repeat 4x
|--0-8-0--0-7-0--0-8-0-------5--333--------------------------------|
|--0-8-0--0-7-0--0-8-0---------------------------------------------|

AFTER "SECOND PART", REPEAT "INTRO" ANOTHER 8 TIMES.

PRE-CHORUS
|-----------------------------------|
|-----------------------------------|
|---x-xxxx------x-xxx---------------|
|---x-xxxx------x-xxx---------------|Repeat 4x
|---x-xxxx------x-xxx---------------|
|---x-xxxx------x-xxx---------------|


CHORUS
|----------|--------|--------------|-------------------------------|
|----------|--------|--------------|-------------------------------|
|----------|--------|--------------|-------------------------------|
|----10----|---12---|----5----7----|----5--------------------------|Repeat 4x
|----10-X13|---12-X2|----5----7-X13|----5-X3-----------------------|
|----10----|---12---|----5----7----|----5--------------------------|


AFTER "CHORUS", REPEAT "SECOND PART" 2 TIMES. THEN, REPEAT "INTRO" ANOTHER 8 TIMES.


PRE-CHORUS
|-----------------------------------|
|-----------------------------------|
|---x-xxxx------x-xxx---------------|
|---x-xxxx------x-xxx---------------|Repeat 4x
|---x-xxxx------x-xxx---------------|
|---x-xxxx------x-xxx---------------|


CHORUS
|----------|--------|--------------|-------------------------------|
|----------|--------|--------------|-------------------------------|
|----------|--------|--------------|-------------------------------|
|----10----|---12---|----5----7----|----5--------------------------|Repeat 4x
|----10-X13|---12-X2|----5----7-X13|----5-X3-----------------------|
|----10----|---12---|----5----7----|----5--------------------------|


INTERLUDE(KINDA)[SLIDE BETWEEN NOTES)
|---------------------------|
|---------------------------|
|---------------------------|
|----12-----------18--------|Repeat 3x
|----12-----------18--------|
|----12-----------18--------|



|-------|-------------------|---------|----------------------------|
|-------|-------------------|---------|----------------------------|
|-------|-------------------|---------|----------------------------|
|-12----|-----14-----15-----|--18-----|--15-----14-----------------|Repeat 4x
|-12-X10|-----14-X2--15-X2--|--18-X11-|--15-X2--14-X2--------------|
|-12----|-----14-----15-----|--18-----|--15-----14-----------------|


|------------------------------------------------------------------|
|------------------------------------------------------------------|
|------------------------------------------------------------------|
|-12-12--0--10-10--0--8-8--0--7-7--0-0-0-0-------------------------|Repeat 4x
|-12-12--0--10-10--0--8-8--0--7-7--0-0-0-0-------------------------|
|-12-12--0--10-10--0--8-8--0--7-7--0-0-0-0-------------------------|


CHORUS
|----------|--------|--------------|-------------------------------|
|----------|--------|--------------|-------------------------------|
|----------|--------|--------------|-------------------------------|
|----10----|---12---|----5----7----|----5--------------------------|Repeat 4x
|----10-X13|---12-X2|----5----7-X13|----5-X3-----------------------|
|----10----|---12---|----5----7----|----5--------------------------|


|------------------------------------------------------------------|
|------------------------------------------------------------------|
|----------------------------5--333--------------------------------|
|--0-8-0--0-7-0--0-8-0-------5--333--------------------------------|Repeat 4x
|--0-8-0--0-7-0--0-8-0-------5--333--------------------------------|
|--0-8-0--0-7-0--0-8-0---------------------------------------------|

END
|---------------------------|
|---------------------------|
|---------------------------|
|-0-8-0x-----0--------------|
|-0-8-0x-----0--------------|
|-0-8-0x-----0--------------|
Tap to rate this tab
 
# A B C D E F G H I J K L M N O P Q R S T U V W X Y Z