Chevelle - The Clincher tab

Artist: Chevelle
Song: The Clincher v.103
Tabbed by: MetalSlayer09
E-mail: 09bpott@gmail.com
drop a#

intro (you gotta let the 0's ring out here)

----------------------------------------------------------------|
----------------------------------------------------------------|
-10^9---12-10^9--10^9---12-10^9--7-9-10^7-----------------------|
--0---0--0--0-----0---0--0--0----0-0--0-------------------------|
----------------------------------------------------------------|
----------------------------------------------------------------|

----------------------------------------------------------------|
----------------------------------------------------------------|
-10^9---12-10^9--10^9---12-10^9--7-9-10^7-----------------------|
--0---0--0--0-----0---0--0--0----0-0--0-------------------------|
----------------------------------------------------------------|
----------------------------------------------------------------|

----------------------------------------------------------------|
----------------------------------------------------------------|
-10^9---12-10^9--10^9---12-10^9--7-9-10^7-----------------------|
--0---0--0--0-----0---0--0--0----0-0--0-------------------------|
----------------------------------------------------------------|
----------------------------------------------------------------|

----------------------------------------------------------------|
----------------------------------------------------------------|
-10^9---12-10^9--10^9---12-10^9--7-9-10^7-----------------------|
--0---0--0--0-----0---0--0--0----0-0--0-------------------------|
----------------------------------------------------------------|
----------------------------------------------------------------|


verse

	I'll stand for nothing less
----------------------------------------------------------------------------|
----------------------------------------------------------------------------|
-----------------------------------------------5-5-5-5-5-5-5-5-5-5-5-5------|
-0-0-0-0-0-0-0-0-0-0-0-1-0-0^1-0-0-0-0-0-0-0-0-5-5-5-5-5-5-5-5-5-5-5-5------|
-----------------------------------------------3-3-3-3-3-3-3-3-3-3-3-3------|
----------------------------------------------------------------------------|

	or never stand again
----------------------------------------------------------------------------|
----------------------------------------------------------------------------|
-----------------------------------------------5-5-5-5-5-5-5-5-5-5-5-5------|
-0-0-0-0-0-0-0-0-0-0-0-1-0-0^1-0-0-0-0-0-0-0-0-5-5-5-5-5-5-5-5-5-5-5-5------|
-----------------------------------------------3-3-3-3-3-3-3-3-3-3-3-3------|
----------------------------------------------------------------------------|

	these are the limits when ones buried
----------------------------------------------------------------------------|
----------------------------------------------------------------------------|
-----------------------------------------------5-5-5-5-5-5-5-5-5-5-5-5------|
-0-0-0-0-0-0-0-0-0-0-0-1-0-0^1-0-0-0-0-0-0-0-0-5-5-5-5-5-5-5-5-5-5-5-5------|
-----------------------------------------------3-3-3-3-3-3-3-3-3-3-3-3------|
----------------------------------------------------------------------------|


	this bodies left the soul					so
----------------------------------------------------------------------------|
----------------------------------------------------------------------------|
-----------------------------------------------5-5-5-5-5-5-5-5-5-5-5-5------|
-0-0-0-0-0-0-0-0-0-0-0-1-0-0^1-0-0-0-0-0-0-0-0-5-5-5-5-5-5-5-5-5-5-5-5------|
-----------------------------------------------3-3-3-3-3-3-3-3-3-3-3-3------|
----------------------------------------------------------------------------|

chorus 1

	could          we   have         known      never would I
-------------------------------------------------------------------------------------------------|
-------------------------------------------------------------------------------------------------|
-10-10-10-10-10-10-10-10-10-10-10-10-10-10-10-10-10-10-10-10-10-10-10-10-10-10-10-10-10-10-10-10-|
-8--8--8--8--8--8--8--8--8--8--8--8--8--8--8--8--x--x--x--x--x--x--x--x--x--x--x--x--x--x--x--x--|
-8--8--8--8--8--8--8--8--8--8--8--8--8--8--8--8--8--8--8--8--8--8--8--8--8--8--8--8--8--8--8--8--|
-8--8--8--8--8--8--8--8--8--8--8--8--8--8--8--8--0--0--0--0--0--0--0--0--0--0--0--0--0--0--0--0--|


		helped     to     nail           down
----------------------------------------------------------------|
----------------------------------------------------------------|
-10-10-10-10-10-10-10-10-10-10-10-10-10-10-10-10-10~------------|
-8--8--8--8--8--8--8--8--8--8--8--8--8--8--8--8--x--------------|
-8--8--8--8--8--8--8--8--8--8--8--8--8--8--8--8--8~-------------|
-8--8--8--8--8--8--8--8--8--8--8--8--8--8--8--8--0~-------------|

verse
(there are harmonics in the back ground here but I'm not sure what they are)

	careful of drifting off
----------------------------------------------------------------------------|
----------------------------------------------------------------------------|
-----------------------------------------------5-5-5-5-5-5-5-5-5-5-5-5------|
-0-0-0-0-0-0-0-0-0-0-0-1-0-0^1-0-0-0-0-0-0-0-0-5-5-5-5-5-5-5-5-5-5-5-5------|
-----------------------------------------------3-3-3-3-3-3-3-3-3-3-3-3------|
----------------------------------------------------------------------------|

	now losing taste and touch
----------------------------------------------------------------------------|
----------------------------------------------------------------------------|
-----------------------------------------------5-5-5-5-5-5-5-5-5-5-5-5------|
-0-0-0-0-0-0-0-0-0-0-0-1-0-0^1-0-0-0-0-0-0-0-0-5-5-5-5-5-5-5-5-5-5-5-5------|
-----------------------------------------------3-3-3-3-3-3-3-3-3-3-3-3------|
----------------------------------------------------------------------------|

	turning a pale blue leaning in to say
----------------------------------------------------------------------------|
----------------------------------------------------------------------------|
-----------------------------------------------5-5-5-5-5-5-5-5-5-5-5-5------|
-0-0-0-0-0-0-0-0-0-0-0-1-0-0^1-0-0-0-0-0-0-0-0-5-5-5-5-5-5-5-5-5-5-5-5------|
-----------------------------------------------3-3-3-3-3-3-3-3-3-3-3-3------|
----------------------------------------------------------------------------|
	this body's left the soul
----------------------------------------------------------------------------|
----------------------------------------------------------------------------|
-----------------------------------------------5-5-5-5-5-5-5-5-5-5-5-5------|
-0-0-0-0-0-0-0-0-0-0-0-1-0-0^1-0-0-0-0-0-0-0-0-5-5-5-5-5-5-5-5-5-5-5-5------|
-----------------------------------------------3-3-3-3-3-3-3-3-3-3-3-3------|
----------------------------------------------------------------------------|


	the brain needs oxygen
----------------------------------------------------------------------------|
----------------------------------------------------------------------------|
-----------------------------------------------5-5-5-5-5-5-5-5-5-5-5-5------|
-0-0-0-0-0-0-0-0-0-0-0-1-0-0^1-0-0-0-0-0-0-0-0-5-5-5-5-5-5-5-5-5-5-5-5------|
-----------------------------------------------3-3-3-3-3-3-3-3-3-3-3-3------|
----------------------------------------------------------------------------|

	can't sneak around this bait
----------------------------------------------------------------------------|
----------------------------------------------------------------------------|
-----------------------------------------------5-5-5-5-5-5-5-5-5-5-5-5------|
-0-0-0-0-0-0-0-0-0-0-0-1-0-0^1-0-0-0-0-0-0-0-0-5-5-5-5-5-5-5-5-5-5-5-5------|
-----------------------------------------------3-3-3-3-3-3-3-3-3-3-3-3------|
----------------------------------------------------------------------------|

	his catacomb has got me by the chin
----------------------------------------------------------------------------|
----------------------------------------------------------------------------|
-----------------------------------------------5-5-5-5-5-5-5-5-5-5-5-5------|
-0-0-0-0-0-0-0-0-0-0-0-1-0-0^1-0-0-0-0-0-0-0-0-5-5-5-5-5-5-5-5-5-5-5-5------|
-----------------------------------------------3-3-3-3-3-3-3-3-3-3-3-3------|
----------------------------------------------------------------------------|
	this body's left the soul
----------------------------------------------------------------------------|
----------------------------------------------------------------------------|
-----------------------------------------------5-5-5-5-5-5-5-5-5-5-5-5------|
-0-0-0-0-0-0-0-0-0-0-0-1-0-0^1-0-0-0-0-0-0-0-0-5-5-5-5-5-5-5-5-5-5-5-5------|
-----------------------------------------------3-3-3-3-3-3-3-3-3-3-3-3------|
----------------------------------------------------------------------------|

chorus 2
  	could          we   have         known      never would I
-------------------------------------------------------------------------------------------------|
-------------------------------------------------------------------------------------------------|
-10-10-10-10-10-10-10-10-10-10-10-10-10-10-10-10-10-10-10-10-10-10-10-10-10-10-10-10-10-10-10-10-|
-8--8--8--8--8--8--8--8--8--8--8--8--8--8--8--8--x--x--x--x--x--x--x--x--x--x--x--x--x--x--x--x--|
-8--8--8--8--8--8--8--8--8--8--8--8--8--8--8--8--8--8--8--8--8--8--8--8--8--8--8--8--8--8--8--8--|
-8--8--8--8--8--8--8--8--8--8--8--8--8--8--8--8--0--0--0--0--0--0--0--0--0--0--0--0--0--0--0--0--|

     helped       to         nail       down
-----------------------------------------------------------------|
-----------------------------------------------------------------|
-5-5-5-5-5-5-5-5-5-5-5-5-5-5-5-5-5-5-5-5-5-5-5-5-5-5-5-5-5-5-5-5-|
-3-3-3-3-3-3-3-3-3-3-3-3-3-3-3-3-5-5-5-5-5-5-5-5-5-5-5-5-5-5-5-5-|
-3-3-3-3-3-3-3-3-3-3-3-3-3-3-3-3-3-3-3-3-3-3-3-3-3-3-3-3-3-3-3-3-|
-3-3-3-3-3-3-3-3-3-3-3-3-3-3-3-3---------------------------------|

      with               nothing           to gain           heres    the    clincher
-------------------------------------------------------------------------------------------------|
-------------------------------------------------------------------------------------------------|
-10-10-10-10-10-10-10-10-10-10-10-10-10-10-10-10-10-10-10-10-10-10-10-10-10-10-10-10-10-10-10-10-|
-8--8--8--8--8--8--8--8--8--8--8--8--8--8--8--8--x--x--x--x--x--x--x--x--x--x--x--x--x--x--x--x--|
-8--8--8--8--8--8--8--8--8--8--8--8--8--8--8--8--8--8--8--8--8--8--8--8--8--8--8--8--8--8--8--8--|
-8--8--8--8--8--8--8--8--8--8--8--8--8--8--8--8--0--0--0--0--0--0--0--0--0--0--0--0--0--0--0--0--|

 	this should be you now saturate
-----------------------------------------------------------------|
-----------------------------------------------------------------|
-5-5-5-5-5-5-5-5-5-5-5-5-5-5-5-5-5-5-5-5-5-5-5-5-5-5-5-5-5-5-5-5-|
-3-3-3-3-3-3-3-3-3-3-3-3-3-3-3-3-5-5-5-5-5-5-5-5-5-5-5-5-5-5-5-5-|
-3-3-3-3-3-3-3-3-3-3-3-3-3-3-3-3-3-3-3-3-3-3-3-3-3-3-3-3-3-3-3-3-|
-3-3-3-3-3-3-3-3-3-3-3-3-3-3-3-3---------------------------------|

pre solo build up

----------------------------------------------------------------|
----------------------------------------------------------------|
-10^9---12-10^9--10^9---12-10^9--7-9-10^7-----------------------|
--0---0--0--0-----0---0--0--0----0-0--0-------------------------|
----------------------------------------------------------------|
----------------------------------------------------------------|

----------------------------------------------------------------|
----------------------------------------------------------------|
-10^9---12-10^9--10^9---12-10^9--7-9-10^7-----------------------|
--0---0--0--0-----0---0--0--0----0-0--0-------------------------|
----------------------------------------------------------------|
----------------------------------------------------------------|

----------------------------------------------------------------|
----------------------------------------------------------------|
-10^9---12-10^9--10^9---12-10^9--7-9-10^7-----------------------|
--0---0--0--0-----0---0--0--0----0-0--0-------------------------|
----------------------------------------------------------------|
----------------------------------------------------------------|

----------------------------------------------------------------|
----------------------------------------------------------------|
-10^9---12-10^9--10^9---12-10^9--7-9-10^7-----------------------|
--0---0--0--0-----0---0--0--0----0-0--0-------------------------|
----------------------------------------------------------------|
----------------------------------------------------------------|


"solo" (play the second chorus behind this twice)

----------------------------------------------------------------|
----------------------------------------------------------------|
-/10-14-9-12-7\5-9----/10-14-9-12-7/5-9-------------------------|
-------------------5--------------------5/12--------------------|
----------------------------------------------------------------|
----------------------------------------------------------------|

this again

now saturate
----------------------------------------------------------------|
----------------------------------------------------------------|
-10^9---12-10^9--10^9---12-10^9--7-9-10^7-----------------------|
--0---0--0--0-----0---0--0--0----0-0--0-------------------------|
----------------------------------------------------------------|
----------------------------------------------------------------|

now saturate
----------------------------------------------------------------|
----------------------------------------------------------------|
-10^9---12-10^9--10^9---12-10^9--7-9-10^7-----------------------|
--0---0--0--0-----0---0--0--0----0-0--0-------------------------|
----------------------------------------------------------------|
----------------------------------------------------------------|

now saturate
----------------------------------------------------------------|
----------------------------------------------------------------|
-10^9---12-10^9--10^9---12-10^9--7-9-10^7-----------------------|
--0---0--0--0-----0---0--0--0----0-0--0-------------------------|
----------------------------------------------------------------|
----------------------------------------------------------------|

and touch
----------------------------------------------------------------|
----------------------------------------------------------------|
-10^9---12-10^9--10^9---12-10^9--7-9-10^7-----------------------|
--0---0--0--0-----0---0--0--0----0-0--0-------------------------|
----------------------------------------------------------------|
----------------------------------------------------------------|

chorus 3
	could          we   have         known      never would I
-------------------------------------------------------------------------------------------------|
-------------------------------------------------------------------------------------------------|
-10-10-10-10-10-10-10-10-10-10-10-10-10-10-10-10-10-10-10-10-10-10-10-10-10-10-10-10-10-10-10-10-|
-8--8--8--8--8--8--8--8--8--8--8--8--8--8--8--8--x--x--x--x--x--x--x--x--x--x--x--x--x--x--x--x--|
-8--8--8--8--8--8--8--8--8--8--8--8--8--8--8--8--8--8--8--8--8--8--8--8--8--8--8--8--8--8--8--8--|
-8--8--8--8--8--8--8--8--8--8--8--8--8--8--8--8--0--0--0--0--0--0--0--0--0--0--0--0--0--0--0--0--|

helped       to         nail       down (I'll stand for nothing less)
-----------------------------------------------------------------|
-----------------------------------------------------------------|
-5-5-5-5-5-5-5-5-5-5-5-5-5-5-5-5-5-5-5-5-5-5-5-5-5-5-5-5-5-5-5-5-|
-3-3-3-3-3-3-3-3-3-3-3-3-3-3-3-3-5-5-5-5-5-5-5-5-5-5-5-5-5-5-5-5-|
-3-3-3-3-3-3-3-3-3-3-3-3-3-3-3-3-3-3-3-3-3-3-3-3-3-3-3-3-3-3-3-3-|
-3-3-3-3-3-3-3-3-3-3-3-3-3-3-3-3---------------------------------|

    with               nothing           to gain           heres    the    clincher
-------------------------------------------------------------------------------------------------|
-------------------------------------------------------------------------------------------------|
-10-10-10-10-10-10-10-10-10-10-10-10-10-10-10-10-10-10-10-10-10-10-10-10-10-10-10-10-10-10-10-10-|
-8--8--8--8--8--8--8--8--8--8--8--8--8--8--8--8--x--x--x--x--x--x--x--x--x--x--x--x--x--x--x--x--|
-8--8--8--8--8--8--8--8--8--8--8--8--8--8--8--8--8--8--8--8--8--8--8--8--8--8--8--8--8--8--8--8--|
-8--8--8--8--8--8--8--8--8--8--8--8--8--8--8--8--0--0--0--0--0--0--0--0--0--0--0--0--0--0--0--0--|

	this should be you  (made cold and crippled)
-----------------------------------------------------------------|
-----------------------------------------------------------------|
-5-5-5-5-5-5-5-5-5-5-5-5-5-5-5-5-5-5-5-5-5-5-5-5-5-5-5-5-5-5-5-5-|
-3-3-3-3-3-3-3-3-3-3-3-3-3-3-3-3-5-5-5-5-5-5-5-5-5-5-5-5-5-5-5-5-|
-3-3-3-3-3-3-3-3-3-3-3-3-3-3-3-3-3-3-3-3-3-3-3-3-3-3-3-3-3-3-3-3-|
-3-3-3-3-3-3-3-3-3-3-3-3-3-3-3-3---------------------------------|

    this                  happened        to be              never changing
-------------------------------------------------------------------------------------------------|
-------------------------------------------------------------------------------------------------|
-10-10-10-10-10-10-10-10-10-10-10-10-10-10-10-10-10-10-10-10-10-10-10-10-10-10-10-10-10-10-10-10-|
-8--8--8--8--8--8--8--8--8--8--8--8--8--8--8--8--x--x--x--x--x--x--x--x--x--x--x--x--x--x--x--x--|
-8--8--8--8--8--8--8--8--8--8--8--8--8--8--8--8--8--8--8--8--8--8--8--8--8--8--8--8--8--8--8--8--|
-8--8--8--8--8--8--8--8--8--8--8--8--8--8--8--8--0--0--0--0--0--0--0--0--0--0--0--0--0--0--0--0--|

	holding inside  (or never stand again)
-----------------------------------------------------------------|
-----------------------------------------------------------------|
-5-5-5-5-5-5-5-5-5-5-5-5-5-5-5-5-5-5-5-5-5-5-5-5-5-5-5-5-5-5-5-5-|
-3-3-3-3-3-3-3-3-3-3-3-3-3-3-3-3-5-5-5-5-5-5-5-5-5-5-5-5-5-5-5-5-|
-3-3-3-3-3-3-3-3-3-3-3-3-3-3-3-3-3-3-3-3-3-3-3-3-3-3-3-3-3-3-3-3-|
-3-3-3-3-3-3-3-3-3-3-3-3-3-3-3-3---------------------------------|

	the phobia viewed     made cold and crippled
-------------------------------------------------------------------------------------------------|
-------------------------------------------------------------------------------------------------|
-10-10-10-10-10-10-10-10-10-10-10-10-10-10-10-10-10-10-10-10-10-10-10-10-10-10-10-10-10-10-10-10-|
-8--8--8--8--8--8--8--8--8--8--8--8--8--8--8--8--x--x--x--x--x--x--x--x--x--x--x--x--x--x--x--x--|
-8--8--8--8--8--8--8--8--8--8--8--8--8--8--8--8--8--8--8--8--8--8--8--8--8--8--8--8--8--8--8--8--|
-8--8--8--8--8--8--8--8--8--8--8--8--8--8--8--8--0--0--0--0--0--0--0--0--0--0--0--0--0--0--0--0--|

	endind it all
-----------------------------------------------------------------|
-----------------------------------------------------------------|
-5-5-5-5-5-5-5-5-5-5-5-5-5-5-5-5-5-5-5-5-5-5-5-5-5-5-5-5-5-5-5-5-|
-3-3-3-3-3-3-3-3-3-3-3-3-3-3-3-3-5-5-5-5-5-5-5-5-5-5-5-5-5-5-5-5-|
-3-3-3-3-3-3-3-3-3-3-3-3-3-3-3-3-3-3-3-3-3-3-3-3-3-3-3-3-3-3-3-3-|
-3-3-3-3-3-3-3-3-3-3-3-3-3-3-3-3---------------------------------|

guess what? this again

----------------------------------------------------------------|
----------------------------------------------------------------|
-10^9---12-10^9--10^9---12-10^9--7-9-10^7-----------------------|
--0---0--0--0-----0---0--0--0----0-0--0-------------------------|
----------------------------------------------------------------|
----------------------------------------------------------------|

----------------------------------------------------------------|
----------------------------------------------------------------|
-10^9---12-10^9--10^9---12-10^9--7-9-10^7-----------------------|
--0---0--0--0-----0---0--0--0----0-0--0-------------------------|
----------------------------------------------------------------|
----------------------------------------------------------------|

----------------------------------------------------------------|
----------------------------------------------------------------|
-10^9---12-10^9--10^9---12-10^9--7-9-10^7-----------------------|
--0---0--0--0-----0---0--0--0----0-0--0-------------------------|
----------------------------------------------------------------|
----------------------------------------------------------------|

----------------------|
----------------------|
-10^9---12-10^9--10---|
--0---0--0--0-----0---|
----------------------|
----------------------|
Tap to rate this tab
 
# A B C D E F G H I J K L M N O P Q R S T U V W X Y Z