Chevelle - Open tab

Band: Chevelle
Song: Open
Album: Point #1
Tunning: D G C F A D
Tabbed By: slipknot345@gmail.com


Main:

D|------------------------------------------------------------|
A|-------------------------------------------------------(x4)-|
F|------------------------------------------------------------|
C|------------------------------------------------------------|
G|------------------------------------------------------------|
D|-0-0-0-0-0-0-x--0-0-0-0-0-0-x--0-0-0-0-0-0-x--0-0-0-0-0-0-x-|
PM - - - - - -    - - - - - -    - - - - - -    - - - - - -

D|------------------------------------------------------------------------------------------------|
A|------------------------------------------------------------------------------------------------|
F|-11-11-11-11-11-11-11-11-11-11-11-11-11-11-11-11-11-11-11-11-11-11-11-11-11-11-11-11-11-11-11-11|
C|--x--x--x--x--x--x--x--x--x--x--x--x--x--x--x--x--x--x--x--x--x--x--x--x--x--x--x--x--x--x--x--x|
G|--9--9--9--9--9--9--9--9--9--9--9--9--9--9--9--9--9--9--9--9--9--9--9--9--9--9--9--9--9--9--9--9|
D|------------------------------------------------------------------------------------------------|

D|------------------------------------------------------------|
A|-------------------------------------------------------(x4)-|
F|------------------------------------------------------------|
C|------------------------------------------------------------|
G|------------------------------------------------------------|
D|-0-0-0-0-0-0-x--0-0-0-0-0-0-x--0-0-0-0-0-0-x--0-0-0-0-0-0-x-|
PM - - - - - -    - - - - - -    - - - - - -    - - - - - -

D|------------------------------------------------------------------------------------------------|
A|------------------------------------------------------------------------------------------------|
F|-11-11-11-11-11-11-11-11-11-11-11-11-11-11-11-11-11-11-11-11-11-11-11-11-11-11-11-11-11-11-11-11|
C|--x--x--x--x--x--x--x--x--x--x--x--x--x--x--x--x--x--x--x--x--x--x--x--x--x--x--x--x--x--x--x--x|
G|2/9--9--9--9--9--9--9--9--9--9--9--9--9--9--9--9--9--9--9--9--9--9--9--9--9--9--9--9--9--9--9--9|
D|------------------------------------------------------------------------------------------------|

D|------------------------------------------------------------|
A|-------------------------------------------------------(x4)-|
F|------------------------------------------------------------|
C|------------------------------------------------------------|
G|------------------------------------------------------------|
D|-0-0-0-0-0-0-x--0-0-0-0-0-0-x--0-0-0-0-0-0-x--0-0-0-0-0-0-x-|
PM - - - - - -    - - - - - -    - - - - - -    - - - - - -

D|------------------------------------------------------------------------------------------------|
A|------------------------------------------------------------------------------------------------|
F|-11-11-11-11-11-11-11-11-11-11-11-11-11-11-11-11-11-11-11-11-11-11-11-11-11-11-11-11-11-11-11-11|
C|--x--x--x--x--x--x--x--x--x--x--x--x--x--x--x--x--x--x--x--x--x--x--x--x--x--x--x--x--x--x--x--x|
G|2/9--9--9--9--9--9--9--9--9--9--9--9--9--9--9--9--9--9--9--9--9--9--9--9--9--9--9--9--9--9--9--9|
D|------------------------------------------------------------------------------------------------|

D|------------------------------------|
A|------------------------------------|
F|------------*All rest*--------------|
C|------------------------------------|
G|------------------------------------|
D|------------------------------------|

D|------------------------------------------------------------|
A|-------------------------------------------------------(x4)-|
F|------------------------------------------------------------|
C|-2-2-2-2-2-2----2-2-2-2-2-2----2-2-2-2-2-2----2-2-2-2-2-2---|
G|-2-2-2-2-2-2----2-2-2-2-2-2----2-2-2-2-2-2----2-2-2-2-2-2---|
D|-0-0-0-0-0-0----0-0-0-0-0-0----0-0-0-0-0-0----0-0-0-0-0-0---|

D|------------------------------------------------------------------------------------------------|
A|------------------------------------------------------------------------------------------------|
F|-11-11-11-11-11-11-11-11-11-11-11-11-11-11-11-11-11-11-11-11-11-11-11-11-11-11-11-11-11-11-11-11|
C|--x--x--x--x--x--x--x--x--x--x--x--x--x--x--x--x--x--x--x--x--x--x--x--x--x--x--x--x--x--x--x--x|
G|2/9--9--9--9--9--9--9--9--9--9--9--9--9--9--9--9--9--9--9--9--9--9--9--9--9--9--9--9--9--9--9--9|
D|------------------------------------------------------------------------------------------------|

--------|
--------|
11-11-0-|
--------|
--------|
--------|

D|------------------------------------------------------------|
A|-------------------------------------------------------(x4)-|
F|------------------------------------------------------------|
C|-2-2-2-2-2-2----2-2-2-2-2-2----2-2-2-2-2-2----2-2-2-2-2-2---|
G|-2-2-2-2-2-2----2-2-2-2-2-2----2-2-2-2-2-2----2-2-2-2-2-2---|
D|-0-0-0-0-0-0----0-0-0-0-0-0----0-0-0-0-0-0----0-0-0-0-0-0---|


*Note: On the album, this song plays into "Point #1". If you want to end
the song with the switch, end by playing the first part of "Point #1":
D|------------------------------------------------------------|
A|------------------------------------------------------------|
F|------------------------------------------------------------|
C|-2-2-2-2-2-2----2-2-2-2-2-2----2-2-2-2-2-2----2-2-2-2-2-2---|
G|-0-0-0-0-0-0-x--0-0-0-0-0-0-x--0-0-0-0-0-0-x--0-0-0-0-0-0-x-|
D|-------------x--------------x--------------x--------------x-|
Tap to rate this tab
 
# A B C D E F G H I J K L M N O P Q R S T U V W X Y Z