Song name
# A B C D E F G H I J K L M N O P Q R S T U V W X Y Z

Chevelle - Face To The Floor tab

Artist: CheVelle
Song: Face to the Floor
Album: Yet to be titled
Tabber: MetalSlayer09
E-mail: 09bpott@gmail.com
Tuning: Drop C

Yeah I know this cd isn't out yet but there are live videos
of this song all over youtube so I thought I'd go ahead
and tab it out.


--------|
--------|
--------|
--------|
--------|
-12/--0-|

  riff A (and the chorus i suppose...)
[----------------------------------------------------------------------------------[
[----------------------------------------------------------------------------------[
[----------------------------------------------------------------------------------[
[----------------------------------------------------------------------------------[
[--------5-3-0----------------5-3-0----------------5-3-0----------------5-3-0------[
[-0-5-3--------5--3-0-0-5-3-0--------5-5-0-0-5-3-0-------5-3--0-0-5-3-0-------5~~~-[

   Prechorus a				Prechorus b
[-------------------------------------[-------------------------[
[-------------------------------------[-------------------------[
[-------------------------------------[-10-10-10-10-12-12-12-12-[
[-0-0-0-0-7-7-7-7-8-8-8-8-10-10-10-10-[-8--8--8--8--10-10-10-10-[
[-0-0-0-0-7-7-7-7-8-8-8-8-10-10-10-10-[-8--8--8--8--10-10-10-10-[
[-0-0-0-0-7-7-7-7-8-8-8-8-10-10-10-10-[-8--8--8--8--10-10-10-10-[

riff b
[---------------------------------------------------------------------------[
[---------------------------------------------------------------------------[
[---------------------------------------------------------------------------[
[-5-3-3-3-5-3-3-3-5-3-5-3-5--------------------------5-3-3-3-5-3-3-3--------[
[-5-3-3-3-5-3-3-3-5-3-5-3-5-------------5-3-0--------5-3-3-3-5-3-3-3--------[
[-5-3-3-3-5-3-3-3-5-3-5-3-5-0-0-0-5-3-0-------5-3-0--5-3-3-3-5-3-3-3-5-3-5~-[

riff c
---------------------[
---------------------[
---------------------[
---------------------[
-3-5-3-5-3-5-3-5-3-5-[
-0-0-0-0-0-0-0-0-0-0-[

riff d
-------------------[
-------------------[
-------------------[
-12-10-8-7-5-7-8-7-[
-12-10-8-7-5-7-8-7-[
-12-10-8-7-5-7-8-7-[

riff e
-------------------------[
-------------------------[
-------------------------[
-5-3-3-3-5-3-3-3-5-3-5-3-[
-5-3-3-3-5-3-3-3-5-3-5-3-[
-5-3-3-3-5-3-3-3-5-3-5-3-[


order:

intro slide
riff a      x3
prechorus a x3
prechorus b x1
riff a      x3
prechorus a x3
prechorus b x1
riff a      x2
riff b      x1
riff c      x4
riff d      x4
riff c      x4
riff d      x4
riff e      x1
prechorus a x3
prechorus b x1
riff a      x4


there ya go, simple song takes about three minutes to learn but is fun to play.
I'll repost this once the album comes out if there are any corrections to be made
but this is exactly how he plays the song live. Any questions, comments, or tab
requests email me...
Tap to rate this tab
# A B C D E F G H I J K L M N O P Q R S T U V W X Y Z