Song name
# A B C D E F G H I J K L M N O P Q R S T U V W X Y Z

Chevelle - Point 1 tab

I'm just became a big Chevelle fan, I've only heard this song a couple times so the 
pattern is off a couple times.
But I'm pretty sure this tab is a good tab.

Band - Chevelle
Song - Point 1
Album - Point 1
http://www.ultimate-guitar.com/submit/tabs.php
Submit Your Tab @ Ultimate-Guitar.Com
Tunning D Stand. (D,G,C,F,A,d)


Verse Clean
d---------------------------------------------|
A---------------------------------------------|
F-2-2-2-2-X-2-2-2-2-X-2-2-2-2-X-2-2-2-2-X-----|
C-2-2-2-2-X-2-2-2-2-X-2-2-2-2-X-2-2-2-2-X-----|
G-0-0-0-0-X-0-0-0-0-X-0-0-0-0-X-0-0-0-0-X-----|
D---------------------------------------------|


Verse Count.
d---------------------------------------------|
A---------------------------------------------|
F-2-2-2-2-X-2-2-2-2-X-2-2-2-2-X-2-0-2-2-2-2---|
C-2-2-2-2-X-2-2-2-2-X-2-2-2-2-X-2-0-3-3-3-3---|
G-0-0-0-0-X-0-0-0-0-X-0-0-0-0-X-0-0-3-3-3-3---|
D---------------------------------0-1-1-1-1---|


Chorus I don't know the strumming Pattern
d---------------------------------------------|
A---------------------------------------------|
F---------------7-----------------------------|
C--3------------7-----------------------------|
G--3------------5-----------------------------|
D--1------------------------------------------|


Verse Clean
d---------------------------------------------|
A---------------------------------------------|
F-2-2-2-2-X-2-2-2-2-X-2-2-2-2-X-2-2-2-2-X-----|
C-2-2-2-2-X-2-2-2-2-X-2-2-2-2-X-2-2-2-2-X-----|
G-0-0-0-0-X-0-0-0-0-X-0-0-0-0-X-0-0-0-0-X-----|
D---------------------------------------------|


Verse Count.
d---------------------------------------------|
A---------------------------------------------|
F-2-2-2-2-X-2-2-2-2-X-2-2-2-2-X-2-0-2-2-2-2---|
C-2-2-2-2-X-2-2-2-2-X-2-2-2-2-X-2-0-3-3-3-3---|
G-0-0-0-0-X-0-0-0-0-X-0-0-0-0-X-0-0-3-3-3-3---|
D---------------------------------0-1-1-1-1---|


Chorus I don't know the strumming Pattern
d---------------------------------------------|
A---------------------------------------------|
F---------------7-----------------------------|
C--3------------7-----------------------------|
G--3------------5-----------------------------|
D--1------------------------------------------|


Intro to Bridge Play 4 more times
d---------------------------------------------|
A---------------------------------------------|
F---------------------------------------------|
C-2-2-2-2-X-2-2-2-2-X-2-2-2-2-X---------------|
G-2-2-2-2-X-2-2-2-2-X-2-2-2-2-X---------------|
D-0-0-0-0-X-0-0-0-0-X-0-0-0-0-X---------------|


Bridge
d---------------------------------------------|
A---------------------------------------------|
F---------------------------------------------|
C-5-5-5-10-10-10-10-10-10-10-10-10-10---------|
G-5-5-5-10-10-10-10-10-10-10-10-10-10---------|
D-3-3-3--8--8--8--8--8--8--8--8--8--8---------|


Bridge Count.
d----------------------------------------------|
A----------------------------------------------|
F----------------------------------------------|
C-10-10-10-10-10-10----------------------------|
G-10-10-10-10-10-10----------------------------|
D--8--8--8--8--8--8----------------------------|


Middle of Bridge
d----------------------------------------------|
A----------------------------------------------|
F-------3*-------------------------------------|
C-2-2-2---------2-2-2--------------------------|
G-2-2-2---------2-2-2--------------------------|
D-0-0-0---------0-0-0--------------------------|
pm  ...           ...


Bridge
d---------------------------------------------|
A---------------------------------------------|
F---------------------------------------------|
C-5-5-5-10-10-10-10-10-10-10-10-10-10---------|
G-5-5-5-10-10-10-10-10-10-10-10-10-10---------|
D-3-3-3--8--8--8--8--8--8--8--8--8--8---------|


Bridge Count.
d----------------------------------------------|
A----------------------------------------------|
F----------------------------------------------|
C-10-10-10-10-10-10----------------------------|
G-10-10-10-10-10-10----------------------------|
D--8--8--8--8--8--8----------------------------|


Middle of Bridge
d-------------------------------------------------|
A-------3*----------------------------------------|
F-------------------------------------------------|
C-2-2-2---------2-2-2-----------------------------|
G-2-2-2---------2-2-2-----------------------------|
D-0-0-0---------0-0-0-----------------------------|
pm  ...           ...

Bridge
d---------------------------------------------|
A---------------------------------------------|
F---------------------------------------------|
C-5-5-5-10-10-10-10-10-10-10-10-10-10---------|
G-5-5-5-10-10-10-10-10-10-10-10-10-10---------|
D-3-3-3--8--8--8--8--8--8--8--8--8--8---------|


Bridge Count.
d----------------------------------------------|
A----------------------------------------------|
F----------------------------------------------|
C-10-10-10-10-10-10----------------------------|
G-10-10-10-10-10-10----------------------------|
D--8--8--8--8--8--8----------------------------|


Middle of Bridge
d----------------------------------------------|
A----------------------------------------------|
F-------3*-------------------------------------|
C-2-2-2---------2-2-2--------------------------|
G-2-2-2---------2-2-2--------------------------|
D-0-0-0---------0-0-0--------------------------|
pm  ...           ...

Bridge
d---------------------------------------------|
A---------------------------------------------|
F---------------------------------------------|
C-5-5-5-10-10-10-10-10-10-10-10-10-10---------|
G-5-5-5-10-10-10-10-10-10-10-10-10-10---------|
D-3-3-3--8--8--8--8--8--8--8--8--8--8---------|


Bridge Count.
d----------------------------------------------|
A----------------------------------------------|
F----------------------------------------------|
C-10-10-10-10-10-10----------------------------|
G-10-10-10-10-10-10----------------------------|
D--8--8--8--8--8--8----------------------------|


Middle of Bridge
d----------------------------------------------|
A----------------------------------------------|
F-------3*-------------------------------------|
C-2-2-2---------2-2-2--------------------------|
G-2-2-2---------2-2-2--------------------------|
D-0-0-0---------0-0-0--------------------------|
pm  ...           ...


Outro of Bridge
d---------------------------------------------|
A---------------------------------------------|
F---------------------------------------------|
C-7-7-----------------------------------------|
G-7-7----------Let-It-Ring--------------------|
D-5-5-----------------------------------------|

Intro to Solo
d---------------------------------------------|
A---------------------------------------------|
F---------------------------------------------|
C---------------------------------------------|
G------10-\-\-\-\-\-\-/-/-/-/-/-/-------------|
C---------------------------------------------|


Solo with Effect
d-----------------------------------------------|
A---------------------------------17------------|
F-------12-----10------12---12-----X------------|
C--------X------X-------X----X----14------------|
G-------10------8------10----8------------------|
D-----------------------------------------------|


Chorus
d---------------------------------------------|
A---------------------------------------------|
F---------------7-----------------------------|
C--3------------7-----------------------------|
G--3------------5-----------------------------|
D--1------------------------------------------|


d------------------|
A------------------|
F-----------3*-----|
C-2-2-2-2-X--------|
G-2-2-2-2-X--------|
D-0-0-0-0-X--------|
Tap to rate this tab
# A B C D E F G H I J K L M N O P Q R S T U V W X Y Z