Song name
# A B C D E F G H I J K L M N O P Q R S T U V W X Y Z

Chevelle - Same Old Trip tab

Artist: Chevelle
Song: Same old Trip
Album: Hats off to the bull
Tabber: Metalslayer09
Tuning: Drop C



intro

these aren't quite tremelo picking but
its easier than writing 700 notes.
-
|-15t--14t-12t------------14t------------12-----------------------|
|-12t--12t-12t------------12t-------------------------------------|
|-----------------------------------------------------------------|
|-----------------------------------------------------------------|
|-----------------------------------------------------------------|
|-----------------------------------------------------------------|
|
|-----------------------------------------------------------------|
|-----------------------------------------------------------------|
|-----------------------------------------------------------------|
|----------5-5-5-5-5-5-5-5-7-7-7-7-7-7-7-7------------------------|
|----------3-3-3-3-3-3-3-3-5-5-5-5-5-5-5-5------------------------|
|-----------------------------------------------------------------|


verse

|------------------------------------------------------------------|
|------------------------------------------------------------------|
|------------------------------------------------------------------|
|------------------------------------------------------------------|
|---------3--------------1-----------------------------------------|
|-2-2-0-2---2-0--2-2-0-2---2-0-------------------------------------|

|-------------------------------------------------------------------------------------------|
|-------------------------------------------------------------------------------------------|
|-------------------------------------------------------------------------------------------|
|-------------------------------------------------------------------------------------------|
|-2-2---2-3-2----2-2---2-1-2----2-2---2-3-2----2-2---2-1-2----2-2---2-3-2----2-2---2-1-2----|
|-2-2-0-2---2-0--2-2-0-2---2-0--2-2-0-2---2-0--2-2-0-2---2-0--2-2-0-2---2-0--2-2-0-2---2-0--|

|-------------------------------------------------------------------------------------------|
|-------------------------------------------------------------------------------------------|
|-------------------------------------------------------------------------------------------|
|-------------------------------------------------------------------------------------------|
|-2-2---2-3-2----2-2---2-1-2----2-2---2-3-2----2-2---2-1-2----2-2---2-3-2----2-2---2-1-2----|
|-2-2-0-2---2-0--2-2-0-2---2-0--2-2-0-2---2-0--2-2-0-2---2-0--2-2-0-2---2-0--2-2-0-2---2-0--|


---------------------------------------------------------------------------|
---------------------------------------------------------------------------|
---------------------------------------------------------------------------|
---------------------------------------------------------------------------|
-2-2---2-3-2----2-2---2-1-2------------------------------------------------|
-2-2-0-2---2-0--2-2-0-2---2-0----------------------------------------------|

chorus

---------------------------------------------------------------------------|
---------------------------------------------------------------------------|
---------------------------------------------------------------------------|
-5-5-5-5-5-5-5-5-7-7-7-7-7-7-7-7-9-9-9-9-9-9-9-9-12-12-12-12-12-12-12-12---|
-3-3-3-3-3-3-3-3-5-5-5-5-5-5-5-5-7-7-7-7-7-7-7-7-10-10-10-10-10-10-10-10---|
---------------------------------------------------------------------------|


---------------------------------------------------------------------------|
---------------------------------------------------------------------------|
---------------------------------------------------------------------------|
-5-5-5-5-5-5-5-5-7-7-7-7-7-7-7-7-------------------------------------------|
-3-3-3-3-3-3-3-3-5-5-5-5-5-5-5-5-------------------------------------------|
---------------------------------------------------------------------------|

pre verse



|-12-------------------------------10--------------------------------|
|--------------------------------------------------------------------|
|--------------------------------------------------------------------|
|--------------------------------------------------------------------|
|--------------------------------------------------------------------|
|--------------------------------------------------------------------|
|
|--------------------------------------------------------------------|
|--------------------------------------------------------------------|
|--------------------------------------------------------------------|
|--------------------------------------------------------------------|
|----------3--------------1---------------3--------------1-----------|
|--2-2-0-2---2-0--2-2-0-2---2-0---2-2-0-2---2-0--2-2-0-2---2-0-------|

vere 2

(now here it sounds more like two guitars playing this than one playing an octave)
(but it works either way so you make the choice)



|-12t--------b---------------------12t-----------b-----------------|
|------------------------------------------------------------------|
|-9t---------b---------------------9t------------b-----------------|
|------------------------------------------------------------------|
|------------------------------------------------------------------|
|------------------------------------------------------------------|
|
|------------------------------------------------------------------|
|------------------------------------------------------------------|
|------------------------------------------------------------------|
|------------------------------------------------------------------|
|-2-2-0-2--------------------------2-2-0-2-------------------3-----|
|-2-2-0-2--------------------------2-2-0-2---------------0-2-------|


|-12t---------b--------------------12t----------b------------------|
|------------------------------------------------------------------|
|--9t---------b--------------------9t-----------b------------------|
|------------------------------------------------------------------|
|------------------------------------------------------------------|
|------------------------------------------------------------------|
|
|------------------------------------------------------------------|
|------------------------------------------------------------------|
|------------------------------------------------------------------|
|------------------------------------------------------------------|
|-2-2-0-2---------------------3----2-2-0-2-------------------3-----|
|-2-2-0-2-----------------0-2------2-2-0-2---------------0-2-------|


pre chorus

(the 12 is very quiet into the left speaker here)

|-12t--------------------------------------------------------------------------|
|------------------------------------------------------------------------------|
|------------------------------------------------------------------------------|
|------------------------------------------------------------------------------|
|------------------------------------------------------------------------------|
|------------------------------------------------------------------------------|
|
|------------------------------------------------------------------------------|
|------------------------------------------------------------------------------|
|------------------------------------------------------------------------------|
|-------------------------------------------------------------x-x-x-x-x-x-x-x--|
|-2-2-0-2-3-2-0-2-2-0-2-----------------2-2-0-2-3-2-0-2-2-0-2-x-x-x-x-x-x-x-x--|
|-2-2-0-2---2-0-2-2-0-2-----------------2-2-0-2---2-0-2-2-0-2-x-x-x-x-x-x-x-x--|
|

chorus

-------------------------------------------------------------------------|
-------------------------------------------------------------------------|
-------------------------------------------------------------------------|
-5-5-5-5-5-5-5-5-7-7-7-7-7-7-7-7-9-9-9-9-9-9-9-9-12-12-12-12-12-12-12-12-|
-3-3-3-3-3-3-3-3-5-5-5-5-5-5-5-5-7-7-7-7-7-7-7-7-10-10-10-10-10-10-10-10-|
-------------------------------------------------------------------------|

-------------------------------------------------------------------------|
-------------------------------------------------------------------------|
-------------------------------------------------------------------------|
-5-5-5-5-5-5-5-5-7-7-7-7-7-7-7-7-9-9-9-9-9-9-9-9-12-12-12-12-12-12-12-12-|
-3-3-3-3-3-3-3-3-5-5-5-5-5-5-5-5-7-7-7-7-7-7-7-7-10-10-10-10-10-10-10-10-|
-------------------------------------------------------------------------|

-------------------------------------------------------------------------|
-------------------------------------------------------------------------|
-------------------------------------------------------------------------|
-5-5-5-5-5-5-5-5-7-7-7-7-7-7-7-7-----------------------------------------|
-3-3-3-3-3-3-3-3-5-5-5-5-5-5-5-5-----------------------------------------|
-------------------------------------------------------------------------|

interlude
(again guitar 1 on here is actually 2 guitars)

|-12t-------------b---------------------------------------------------------------------------|
|------------------------------12t----------------------13t-12t-------------------------------|
|---------------------------------------------------------------------------------------------|
|-14t-------------b---------------------------------------------------------------------------|
|------------------------------14t----------------------15t-14t-------------------------------|
|---------------------------------------------------------------------------------------------|
|
|---------------------------------------------------------------------------------------------|
|------------------------------------------------------------0--------------------------------|
|--------------------0-------0----------------------0-----------------------------------------|
|-----------------4-------4-----------------------4--------4----------------------------------|
|-2-2-0-2-0-2-0-2------2-------2-2-0-2-0-2-0---2-------2--------------------------------------|
|-2-2-0-2-0-2-0----------------2-2-0-2-0-2-0--------------------------------------------------|



|-15t-------------------------14t-----------------------------12-----------------------------|
|--------------------------------------------------------------------------------------------|
|--------------------------------------------------------------------------------------------|
|-17t-------------------------16t-----------------------------14-----------------------------|
|--------------------------------------------------------------------------------------------|
|--------------------------------------------------------------------------------------------|
|
|--------------------------------------------------------------------------------------------|
|------------------------------------------------------------0-------------------------------|
|--------------------0-------0----------------------0----------------------------------------|
|-----------------4-------4-----------------------4--------4---------------------------------|
|-2-2-0-2-0-2-0-2------2-------2-2-0-2-0-2-0---2-------2-------------------------------------|
|-2-2-0-2-0-2-0----------------2-2-0-2-0-2-0-------------------------------------------------|




prechorus 2

|-12----------bt---------12-------bt--------------12t---------b--------12t-----b-------------|
|--------------------------------------------------------------------------------------------|
|--------------------------------------------------------------------------------------------|
|-14----------bt---------14-------bt--------------14t---------b--------14t-----b-------------|
|--------------------------------------------------------------------------------------------|
|--------------------------------------------------------------------------------------------|
|
|--------------------------------------------------------------------------------------------|
|--------------------------------------------------------------------------------------------|
|--------------------------------------------------------------------------------------------|
|--------------------------------------------------------------------------------------------|
|-2-2-0-2-3-2-0-2-2-0-2--2-2-0-2-3-2-0-2-2-0-2--2-2-0-2-3-2-0-2-2-0-2--2-2-0-2-3-2-0-2-2-0-2-|
|-2-2-0-2---2-0-2-2-0-2--2-2-0-2---2-0-2-2-0-2--2-2-0-2---2-0-2-2-0-2--2-2-0-2---2-0-2-2-0-2-|


chorus

(the top guitar is really hard to hear but once)
(ya hear it it annoys the hell outta ya.)

|-------------------------------------------------15-15-15-15-15-15-15-15-|
|-12(x24)-----------------------------------------12-12-12-12-12-12-12-12-|
|-------------------------------------------------------------------------|
|-------------------------------------------------------------------------|
|-------------------------------------------------------------------------|
|-------------------------------------------------------------------------|
|
|-------------------------------------------------------------------------|
|-------------------------------------------------------------------------|
|-------------------------------------------------------------------------|
|-5-5-5-5-5-5-5-5-7-7-7-7-7-7-7-7-9-9-9-9-9-9-9-9-12-12-12-12-12-12-12-12-|
|-3-3-3-3-3-3-3-3-5-5-5-5-5-5-5-5-7-7-7-7-7-7-7-7-10-10-10-10-10-10-10-10-|
|-------------------------------------------------------------------------|


|-------------------------------------------------15-15-15-15-15-15-15-15-|
|-12(x24)-----------------------------------------12-12-12-12-12-12-12-12-|
|-------------------------------------------------------------------------|
|-------------------------------------------------------------------------|
|-------------------------------------------------------------------------|
|-------------------------------------------------------------------------|
|
|-------------------------------------------------------------------------|
|-------------------------------------------------------------------------|
|-------------------------------------------------------------------------|
|-5-5-5-5-5-5-5-5-7-7-7-7-7-7-7-7-9-9-9-9-9-9-9-9-12-12-12-12-12-12-12-12-|
|-3-3-3-3-3-3-3-3-5-5-5-5-5-5-5-5-7-7-7-7-7-7-7-7-10-10-10-10-10-10-10-10-|
|-------------------------------------------------------------------------|


|-------------------------------------------------15-15-15-15-15-15-15-15-|
|-12(x24)-----------------------------------------12-12-12-12-12-12-12-12-|
|-------------------------------------------------------------------------|
|-------------------------------------------------------------------------|
|-------------------------------------------------------------------------|
|-------------------------------------------------------------------------|
|
|-------------------------------------------------------------------------|
|-------------------------------------------------------------------------|
|-------------------------------------------------------------------------|
|-5-5-5-5-5-5-5-5-7-7-7-7-7-7-7-7-9-9-9-9-9-9-9-9-12-12-12-12-12-12-12-12-|
|-3-3-3-3-3-3-3-3-5-5-5-5-5-5-5-5-7-7-7-7-7-7-7-7-10-10-10-10-10-10-10-10-|
|-------------------------------------------------------------------------|

|-------------------------------------------------------------------|
|-12(x24)-----------------------------------------------------------|
|-------------------------------------------------------------------|
|-------------------------------------------------------------------|
|-------------------------------------------------------------------|
|-------------------------------------------------------------------|
|
|-------------------------------------------------------------------|
|-------------------------------------------------------------------|
|-------------------------------------------------------------------|
|-5-5-5-5-5-5-5-5-7-7-7-7-7-7-7-7-----------------------------------|
|-3-3-3-3-3-3-3-3-5-5-5-5-5-5-5-5-----------------------------------|
|-------------------------------------------------------------------|

outro


|----------|
|----------|
|-9t-------|
|-----2----|
|-7t--2----|
|-----2----|




also before someone starts a flame war in the comments the chorus can also be played
with the following

|----------------|
|----------------|
|----------------|
|-10-12-14-17----|
|-10-12-14-17----|
|-10-12-14-17----|
Tap to rate this tab
 
# A B C D E F G H I J K L M N O P Q R S T U V W X Y Z