Song name
# A B C D E F G H I J K L M N O P Q R S T U V W X Y Z

Chevelle - Ruse tab

Artist: Chevelle
Song: Ruse
Album: Hats off to the bull
Tabber: MetalSLayer09
Tuning: Drop c



intro

|-------------------------------------------------------------------------------------|
|-------------------------------------------------------------------------------------|
|-------------------------------------------------------------------------------------|
|-7h8p7--------7h8p7------7h8p8-------------7h8p7--------7h8p7------7h8p8-------------|
|--------5--5---------5-5-------5-5-5-5-5---------5--5---------5-5-------5-5-5-5-5\---|
|-------------------------------------------------------------------------------------|


|------------------------------------------------------------------------------------------|
|---5---5p3---5---5p1---5---5p2---5------------5---5p3---5---5p1---5---5p2---5-------------|
|---2---2-----2---2-----2---2-----2------------2---2-----2---2-----2---2-----2-------------|
|-0-0-0-0---0-0-0-0---0-0-0-0---0-0-0-10-8-7-0-0-0-0---0-0-0-0---0-0-0-0---0-0-0-7-8-10----|
|-0-0-0-0---0-0-0-0---0-0-0-0---0-0-0-10-8-7-0-0-0-0---0-0-0-0---0-0-0-0---0-0-0-7-8-10----|
|-0-0-0-0---0-0-0-0---0-0-0-0---0-0-0-10-8-7-0-0-0-0---0-0-0-0---0-0-0-0---0-0-0-7-8-10----|

verse


|-1--1--1--1----------------------------------------------------|
|-3--3--3--3----------------------------------------------------|
|-2--2--2--2----------------------------------------------------|
|-0--0--0--0----------------------------------------------------|
|-0--0--0--0----------------------------------------------------|
|-0-------------------------------------------------------------|

|-------------------------------------------------------------------------------------|
|-------------------------------------------------------------------------------------|
|-------------------------------------------------------------------------------------|
|-7h8p7--------7h8p7------7h8p8-------------7h8p7--------7h8p7------7h8p8-------------|
|--------5--5---------5-5-------5-5-5-5-5---------5--5---------5-5-------5-5-5-5-5\---|
|-------------------------------------------------------------------------------------|

|-1--1--1--1--------------------------------------------------------|
|-3--3--3--3--------------------------------------------------------|
|-2--2--2--2---xxxx-------------------------------------------------|
|-0--0--0--0---xxxx-------------------------------------------------|
|-0--0--0--0---xxxx-------------------------------------------------|
|-0------------xxxx-------------------------------------------------|


chorus

|-------------------------------------------------------------------------|
|-----3-3-----------------------------------------------------------------|
|-----2-2-------5-5---------12-12--------10-10----------------------------|
|-0-0-0-0-0-3-3-3-3-3-10-10-10-10-10-8-8-8--8--8--------------------------|
|-0-0-0-0-0-3-3-3-3-3-10-10-10-10-10-8-8-8--8--8--------------------------|
|-0-------0-3-----3-3-10-------10-10-8------8--8--------------------------|


|----------------------------------------------------------------------------|
|----------------------------------------------------------------------------|
|-/14-14-14-14-14-14-14-14-14-14-14-14-/17-17-17-17-17-17-17-17-17-17-17-17--|
|----------------------------------------------------------------------------|
|-/12-12-12-12-12-12-12-12-12-12-12-12-/15-15-15-15-15-15-15-15-15-15-15-15--|
|----------------------------------------------------------------------------|


|-----------------------------------------------------------------------|
|-----------------------------------------------------------------------|
|-12-12-12-12-12-12-12-12-12-12-12-12-10-10-10-10-10-10-10-10-10-10-9-9-|
|-----------------------------------------------------------------------|
|-10-10-10-10-10-10-10-10-10-10-10-10-8--8--8--8--8--8--8--8--8--8--7-7-|
|-----------------------------------------------------------------------|

preverse

|------------------------------------------------------------------------------------------|
|---5---5p3---5---5p1---5---5p2---5------------5---5p3---5---5p1---5---5p2---5-------------|
|---2---2-----2---2-----2---2-----2------------2---2-----2---2-----2---2-----2-------------|
|-0-0-0-0---0-0-0-0---0-0-0-0---0-0-0-10-8-7-0-0-0-0---0-0-0-0---0-0-0-0---0-0-0-7-8-10----|
|-0-0-0-0---0-0-0-0---0-0-0-0---0-0-0-10-8-7-0-0-0-0---0-0-0-0---0-0-0-0---0-0-0-7-8-10----|
|-0-0-0-0---0-0-0-0---0-0-0-0---0-0-0-10-8-7-0-0-0-0---0-0-0-0---0-0-0-0---0-0-0-7-8-10----|



|-----------------------------------------------|
|-----------------------------------------------|
|-----------------------------------------------|
|---7h8p7----------7h8p7------7h8p7-------------|
|-----------5--5---------5-5-------5-5-5-5-5\---|
|-----------------------------------------------|


verse


|-1--1--1--1-------------------------------------1--1--1--1--------------------------------------|
|-3--3--3--3-------------------------------------3--3--3--3--------------------------------------|
|-2--2--2--2-------------------------------------2--2--2--2--------------------------------------|
|-0--0--0--0--10--10-10-10-10-10-8-7-5-5-5-5-5-5-0--0--0--0--------------------------------------|
|-0--0--0--0--10--10-10-10-10-10-8-7-5-5-5-5-5-5-0--0--0--0--------------------------------------|
|-0-----------10--10-10-10-10-10-8-7-5-5-5-5-5-5-0--0--0--0-10--10-10-10-10-10-8-7-5-5-5-5-5-5-0-|




|----------------------------------|
|----------------------------------|
|----------------------------xxxx--|
|----------------------------xxxx--|
|----------------------------xxxx--|
|-10--10-10-10-10-10-8-7-5---xxxx--|


chorus

|-------------------------------------------------------------------------|
|-----3-3-----------------------------------------------------------------|
|-----2-2-------5-5---------12-12--------10-10----------------------------|
|-0-0-0-0-0-3-3-3-3-3-10-10-10-10-10-8-8-8--8--8--------------------------|
|-0-0-0-0-0-3-3-3-3-3-10-10-10-10-10-8-8-8--8--8--------------------------|
|-0-------0-3-----3-3-10-------10-10-8------8--8--------------------------|


|----------------------------------------------------------------------------|
|----------------------------------------------------------------------------|
|-/14-14-14-14-14-14-14-14-14-14-14-14-/17-17-17-17-17-17-17-17-17-17-17-17--|
|----------------------------------------------------------------------------|
|-/12-12-12-12-12-12-12-12-12-12-12-12-/15-15-15-15-15-15-15-15-15-15-15-15--|
|----------------------------------------------------------------------------|


|-----------------------------------------------------------------------|
|-----------------------------------------------------------------------|
|-12-12-12-12-12-12-12-12-12-12-12-12-10-10-10-10-10-10-10-10-10-10-9-9-|
|-----------------------------------------------------------------------|
|-10-10-10-10-10-10-10-10-10-10-10-10-8--8--8--8--8--8--8--8--8--8--7-7-|
|-----------------------------------------------------------------------|

|-------------------------------------------------------------------------|
|-------------------------------------------------------------------------|
|-12-12-12-12-12-12-12-12-12-12-12-12-14-14-14-14-14-14-14-14-14-14-14-14-|
|-12-12-12-12-12-12-12-12-12-12-12-12-14-14-14-14-14-14-14-14-14-14-14-14-|
|-10-10-10-10-10-10-10-10-10-10-10-10-12-12-12-12-12-12-12-12-12-12-12-12-|
|-------------------------------------------------------------------------|

|-------------------------------------------------------------------------|
|-----3-3-----------------------------------------------------------------|
|-----2-2-------5-5---------12-12--------10-10----------------------------|
|-0-0-0-0-0-3-3-3-3-3-10-10-10-10-10-8-8-8--8--8--------------------------|
|-0-0-0-0-0-3-3-3-3-3-10-10-10-10-10-8-8-8--8--8--------------------------|
|-0-------0-3-----3-3-10-------10-10-8------8--8--------------------------|


|----------------------------------------------------------------------------|
|----------------------------------------------------------------------------|
|-/14-14-14-14-14-14-14-14-14-14-14-14-/17-17-17-17-17-17-17-17-17-17-17-17--|
|----------------------------------------------------------------------------|
|-/12-12-12-12-12-12-12-12-12-12-12-12-/15-15-15-15-15-15-15-15-15-15-15-15--|
|----------------------------------------------------------------------------|


|-----------------------------------------------------------------------|
|-----------------------------------------------------------------------|
|-12-12-12-12-12-12-12-12-12-12-12-12-10-10-10-10-10-10-10-10-10-10-9-9-|
|-----------------------------------------------------------------------|
|-10-10-10-10-10-10-10-10-10-10-10-10-8--8--8--8--8--8--8--8--8--8--7-7-|
|-----------------------------------------------------------------------|

pre-solo

|-------------------------------------------------------------------------|
|-------------------------------------------------------------------------|
|-10-10-10-10-9-9-9-9-9-9-9-9-9-9-9-9-10-10-10-10-10-10-10-10-10-10-10-10-|
|-8--8--8--8--9-9-9-9-9-9-9-9-9-9-9-9-10-10-10-10-10-10-10-10-10-10-10-10-|
|-8--8--8--8--7-7-7-7-7-7-7-7-7-7-7-7-8--8--8--8--8--8--8--8--8--8--8--8--|
|-------------------------------------------------------------------------|

|-------------------------------------------------------------------------|
|-------------------------------------------------------------------------|
|-12-12-12-12-12-12-12-12-12-12-12-12-14-14-14-14-14-14-14-14-14-14-14-14-|
|-12-12-12-12-12-12-12-12-12-12-12-12-14-14-14-14-14-14-14-14-14-14-14-14-|
|-10-10-10-10-10-10-10-10-10-10-10-10-12-12-12-12-12-12-12-12-12-12-12-12-|
|-------------------------------------------------------------------------|


|--------------------------------------------------------|
|--------------------------------------------------------|
|-10-10-10-10-9-9-9-9-9-9-9-9-9-9-9-9--------------------|
|-8--8--8--8--9-9-9-9-9-9-9-9-9-9-9-9-15-14-12-15-14-12--|
|-8--8--8--8--7-7-7-7-7-7-7-7-7-7-7-7-0--0--0--0--0--0---|
|-------------------------------------0--0--0--0--0--0---|


"solo"
|--------------------------------------------------------------|
|--------------------------------------------------------18----|
|--17----17----17----17-----17\19-19-19---------17----17----17-|
|-----17----17----17----17--17\19-19-19-17b-12-----17----------|
|--------------------------------------------------------------|
|--------------------------------------------------------------|


|--------------------|
|--------------------|
|-17\19-19-19----19t-|
|-------------19-19t-|
|--------------------|
|--------------------|

chorus

|-------------------------------------------------------------------------|
|-----3-3-----------------------------------------------------------------|
|-----2-2-------5-5---------12-12--------10-10----------------------------|
|-0-0-0-0-0-3-3-3-3-3-10-10-10-10-10-8-8-8--8--8--------------------------|
|-0-0-0-0-0-3-3-3-3-3-10-10-10-10-10-8-8-8--8--8--------------------------|
|-0-------0-3-----3-3-10-------10-10-8------8--8--------------------------|


|---------------------------------------------------------------------------|
|---------------------------------------------------------------------------|
|-/14-14-14-14-14-14-14-14-14-14-14-14-/17-17-17-17-17-17-17-17-17-17-17-17-|
|---------------------------------------------------------------------------|
|-/12-12-12-12-12-12-12-12-12-12-12-12-/15-15-15-15-15-15-15-15-15-15-15-15-|
|---------------------------------------------------------------------------|


|-----------------------------------------------------------------------|
|-----------------------------------------------------------------------|
|-12-12-12-12-12-12-12-12-12-12-12-12-10-10-10-10-10-10-10-10-10-10-9-9-|
|-----------------------------------------------------------------------|
|-10-10-10-10-10-10-10-10-10-10-10-10-8--8--8--8--8--8--8--8--8--8--7-7-|
|-----------------------------------------------------------------------|

|-------------------------------------------------------------------------|
|-----3-3-----------------------------------------------------------------|
|-----2-2-------5-5---------12-12--------10-10----------------------------|
|-0-0-0-0-0-3-3-3-3-3-10-10-10-10-10-8-8-8--8--8--------------------------|
|-0-0-0-0-0-3-3-3-3-3-10-10-10-10-10-8-8-8--8--8--------------------------|
|-0-------0-3-----3-3-10-------10-10-8------8--8--------------------------|


|---------------------------------------------------------------------------|
|---------------------------------------------------------------------------|
|-/14-14-14-14-14-14-14-14-14-14-14-14-/17-17-17-17-17-17-17-17-17-17-17-17-|
|---------------------------------------------------------------------------|
|-/12-12-12-12-12-12-12-12-12-12-12-12-/15-15-15-15-15-15-15-15-15-15-15-15-|
|---------------------------------------------------------------------------|


|-----------------------------------------------------------------------|
|-----------------------------------------------------------------------|
|-12-12-12-12-12-12-12-12-12-12-12-12-10-10-10-10-10-10-10-10-10-10-9-9-|
|-----------------------------------------------------------------------|
|-10-10-10-10-10-10-10-10-10-10-10-10-8--8--8--8--8--8--8--8--8--8--7-7-|
|-----------------------------------------------------------------------|

outro

|-------------------------------------------------------------------------------------------|
|---5---5p3---5---5p1---5---5p2---5-------------5---5p3---5---5p1---5---5p2---5-------------|
|---2---2-----2---2-----2---2-----2-------------2---2-----2---2-----2---2-----2-------------|
|-0-0-0-0---0-0-0-0---0-0-0-0---0-0-0-10-8-10-0-0-0-0---0-0-0-0---0-0-0-0---0-0-0-8-5-7-3-0-|
|-0-0-0-0---0-0-0-0---0-0-0-0---0-0-0-10-8-10-0-0-0-0---0-0-0-0---0-0-0-0---0-0-0-8-5-7-3-0-|
|-0-0-0-0---0-0-0-0---0-0-0-0---0-0-0-10-8-10-0-0-0-0---0-0-0-0---0-0-0-0---0-0-0-8-5-7-3-0-|

then a crapload of random feedback
Tap to rate this tab
 
# A B C D E F G H I J K L M N O P Q R S T U V W X Y Z