Song name
# A B C D E F G H I J K L M N O P Q R S T U V W X Y Z

Chevelle - The Meddler tab

Artist: Chevelle
Song: The meddler
Album: Hats Off To  the Bull
Tabbed by: MetalSlayer09
Tuning: Drop b

verse

|--------|
|-10--8--|
|-9---9--|
|-7---7--|
|--------|
|--------|

chorus 1

|----------------------------------------------------------|
|----------------------------------------------------------|
|----------------------------------------------------------|
|-7--7-7--7-7-7--7--7-7--7-7-7-10--10-10--10-10-10---------|
|-7--7-7--7-7-7--7--7-7--7-7-7-10--10-10--10-10-10---------|
|-7--7-7--7-7-7--7--7-7--7-7-7-10--10-10--10-10-10---------|


|----------------------------------------------------------|
|----------------------------------------------------------|
|----------------------------------------------------------|
|-12--12-12--12-12-12--------------------------------------|
|-12--12-12--12-12-12--------------------------------------|
|-12--12-12--12-12-12--------------------------------------|

preverse


|----------------------------------------------------------|
|----------------------------------------------------------|
|-14-9-----------14-9--------------------------------------|
|------13t-12-10------13t-12-10-7--------------------------|
|----------------------------------------------------------|
|----------------------------------------------------------|

chorus 2

|----------------------------------------------------------------|
|----------------------------------------------------------------|
|------------------------------16-16-16-16-14-12-12-9-9-9--7-7-7-|
|----------------------------------------------------------------|
|------------------------------14-14-14-14-12-10-10-7-7-7--5-5-5-|
|----------------------------------------------------------------|
|
|----------------------------------------------------------------|
|----------------------------------------------------------------|
|----------------------------------------------------------------|
|-7--7-7--7-7-7--7--7-7--7-7-7-10--10-10--10-10-10-5--5-5--5-5-5-|
|-7--7-7--7-7-7--7--7-7--7-7-7-10--10-10--10-10-10-5--5-5--5-5-5-|
|-7--7-7--7-7-7--7--7-7--7-7-7-10--10-10--10-10-10-5--5-5--5-5-5-|


|----------------------------------------------------------------|
|----------------------------------------------------------------|
|------------------------------16-16-16-16-14-12-12-9-9-9--7-7-7-|
|----------------------------------------------------------------|
|------------------------------14-14-14-14-12-10-10-7-7-7--5-5-5-|
|----------------------------------------------------------------|
|
|----------------------------------------------------------------|
|----------------------------------------------------------------|
|----------------------------------------------------------------|
|-7--7-7--7-7-7--7--7-7--7-7-7-10--10-10--10-10-10-5--5-5--5-5-5-|
|-7--7-7--7-7-7--7--7-7--7-7-7-10--10-10--10-10-10-5--5-5--5-5-5-|
|-7--7-7--7-7-7--7--7-7--7-7-7-10--10-10--10-10-10-5--5-5--5-5-5-|

interlude


|---------------------------------------------------------|
|---------------------------------------------------------|
|---------------------------------------------------------|
|-2-2-4-5--4-5--4-5---4-5-5-5-4-5-5-5-4-5-5-5-4-5-5-5-4-5-|
|-2-2---------------------5-5-----5-5-----5-5-----5-5-----|
|-2-2---------------------5-5-----5-5-----5-5-----5-5-----|


|---------------------------------------------------------------------|
|---------------------------------------------------------------------|
|---------------------------------------------------------------------|
|-7-7-9-10-7-7-9-10-7-7-9-10-7-7-9-10-5-5-7-9-5-5-7-9-5-5-7-9-5-5-/\--|
|-7-7------7-7------7-7------7-7------5-5-----5-5-----5-5-----5-5-/\--|
|-7-7------7-7------7-7------7-7------5-5-----5-5-----5-5-----5-5-/\--|


|-----------------------------------------------------------------|
|-----------------------------------------------------------------|
|-----------------------------------------------------------------|
|-2-2-4-5-2-2-4-5-2-2-4-5-2-2-4-5-5-5-4-5-5-5-4-5-5-5-4-5-5-5-4-5-|
|-2-2-----2-2-----2-2-----2-2-----5-5-----5-5-----5-5-----5-5-----|
|-2-2-----2-2-----2-2-----2-2-----5-5-----5-5-----5-5-----5-5-----|



|----------------------------------------------------------------------|
|----------------------------------------------------------------19-15-|
|----------------------------------------------------------------------|
|----------------------------------------------------------------------|
|----------------------------------------------------------------------|
|----------------------------------------------------------------------|
|
|----------------------------------------------------------------------|
|----------------------------------------------------------------------|
|----------------------------------------------------------------------|
|-7-7-9-10-7-7-9-10-7-7-9-10-7-7-9-10-5-5-7-9-5-5-7-9-5-5-7-9-5-5-10-5-|
|-7-7------7-7------7-7------7-7------5-5-----5-5-----5-5-----5-5-10-5-|
|-7-7------7-7------7-7------7-7------5-5-----5-5-----5-5-----5-5-10-5-|

chorus (right notes probably wrong amount of times on the top guitar)

|-----------------------------------------------------------------|
|-----------------------------------------------------------------|
|-16-16-16-16-16-16-16-17-17-16-16-16-16-16-14-12-12-9-9-9--7-7-7-|
|-----------------------------------------------------------------|
|-14-14-14-14-14-14-14-15-15-14-14-14-14-14-12-10-10-7-7-7--5-5-5-|
|-----------------------------------------------------------------|
|
|----------------------------------------------------------------|
|----------------------------------------------------------------|
|----------------------------------------------------------------|
|-7--7-7--7-7-7--7--7-7--7-7-7-10--10-10--10-10-10-5--5-5--5-5-5-|
|-7--7-7--7-7-7--7--7-7--7-7-7-10--10-10--10-10-10-5--5-5--5-5-5-|
|-7--7-7--7-7-7--7--7-7--7-7-7-10--10-10--10-10-10-5--5-5--5-5-5-|


|-----------------------------------------------------------------|
|-----------------------------------------------------------------|
|-16-16-16-16-16-16-16-17-17-16-16-16-16-16-14-12-12-9-9-9--7-7-7-|
|-----------------------------------------------------------------|
|-14-14-14-14-14-14-14-15-15-14-14-14-14-14-12-10-10-7-7-7--5-5-5-|
|-----------------------------------------------------------------|
|
|----------------------------------------------------------------|
|----------------------------------------------------------------|
|----------------------------------------------------------------|
|-7--7-7--7-7-7--7--7-7--7-7-7-10--10-10--10-10-10-5--5-5--5-5-5-|
|-7--7-7--7-7-7--7--7-7--7-7-7-10--10-10--10-10-10-5--5-5--5-5-5-|
|-7--7-7--7-7-7--7--7-7--7-7-7-10--10-10--10-10-10-5--5-5--5-5-5-|


|-----------------------------------------------------------------|
|-----------------------------------------------------------------|
|-16-16-16-16-16--16--16--17--17--16--16--16--16--16--14--12--12--|
|-----------------------------------------------------------------|
|-14-14-14-14-14--14--14--15--15--14--14--14--14--14--12--10--10--|
|-----------------------------------------------------------------|
|
|------------------------------------------------------------------|
|------------------------------------------------------------------|
|------------------------------------------------------------------|
|-7-7-7-7-7-7-7-7-7-7-7-7-7-7-3-3-10-10-10-10-10-10-10-10-10-10-10-|
|-7-7-7-7-7-7-7-7-7-7-7-7-7-7-3-3-10-10-10-10-10-10-10-10-10-10-10-|
|-7-7-7-7-7-7-7-7-7-7-7-7-7-7-3-3-10-10-10-10-10-10-10-10-10-10-10-|




|--------------------------------|
|--------------------------------|
|-9--9---9---7---7----7----------|
|--------------------------------|
|-7---7--7---5---5----5----------|
|--------------------------------|
|
|--------------------------------|
|--------------------------------|
|--------------------------------|
|-5-5-5-5-5-5-5-5-5-5-5-5-10-9---|
|-5-5-5-5-5-5-5-5-5-5-5-5-10-9---|
|-5-5-5-5-5-5-5-5-5-5-5-5-10-9---|


|-----------------------------------------------------------------|
|-----------------------------------------------------------------|
|-16-16-16-16-16--16--16--17--17--16--16--16--16--16--14--12--12--|
|-----------------------------------------------------------------|
|-14-14-14-14-14--14--14--15--15--14--14--14--14--14--12--10--10--|
|-----------------------------------------------------------------|
|
|------------------------------------------------------------------|
|------------------------------------------------------------------|
|------------------------------------------------------------------|
|-7-7-7-7-7-7-7-7-7-7-7-7-7-7-3-3-10-10-10-10-10-10-10-10-10-10-10-|
|-7-7-7-7-7-7-7-7-7-7-7-7-7-7-3-3-10-10-10-10-10-10-10-10-10-10-10-|
|-7-7-7-7-7-7-7-7-7-7-7-7-7-7-3-3-10-10-10-10-10-10-10-10-10-10-10-|




|--------------------------------|
|--------------------------------|
|-9--9---9---7---7----7----------|
|--------------------------------|
|-7---7--7---5---5----5----------|
|--------------------------------|
|
|--------------------------------|
|--------------------------------|
|--------------------------------|
|-5-5-5-5-5-5-5-5-5-5-5-5-10-9---|
|-5-5-5-5-5-5-5-5-5-5-5-5-10-9---|
|-5-5-5-5-5-5-5-5-5-5-5-5-10-9---|


|-----------------------------------------------------------------|
|-----------------------------------------------------------------|
|-14-9-12-------14-9-12-------14-9-12-------14-9-12---------------|
|---------12-14---------12-14---------12-14---------12-14----5-7--|
|---------------------------------------------------------------0-|
|-----------------------------------------------------------------|
|
|-------------------------------------------------------------|
|-------------------------------------------------------------|
|-------------------------------------------------------------|
|-7--7-7--7-7-7--7--7-7--7-7-7--7--7-7--7-7-7---7--7-7--7-7-7-|
|-7--7-7--7-7-7--7--7-7--7-7-7--7--7-7--7-7-7---7--7-7--7-7-7-|
|-7--7-7--7-7-7--7--7-7--7-7-7--7--7-7--7-7-7---7--7-7--7-7-7-|
Tap to rate this tab
# A B C D E F G H I J K L M N O P Q R S T U V W X Y Z