Song name
# A B C D E F G H I J K L M N O P Q R S T U V W X Y Z

Chevelle - Pinata tab

-------------------------------------------------------------------------------
			     Pinata - Chevelle
-------------------------------------------------------------------------------
Tabbed by: Imran Khalique
Email: thefallguy15@yahoo.com

This should be 100% accurate. Let me know if you have any suggestions. Obviously not 
every single pick scrape is tabbed.  This is the general chords and fret numbers everyone's 
looking for. You must do your own legwork for details such as strumming and such


Please check out my youtube channel . I play this song and more.

------youtube.com/user/milkeatscereal------

Tuning: Drop C

|---------------------------------------------------------------------------|
|---------------------------------------------------------------------------|
|---------------------------------------------------------------------------|
|-3p0-0-0---2p0-0-0-1p0-0--0-0--1p0-0-0-2p0-0-0--3p0-0-0--------------------|
|---------------------------------------------------------3/----------------|
|---------------------------------------------------------3/----------------|

|---------------------------------------------------------------------------|
|---------------------------------------------------------------------------|
|---------------------------------------------------------------------------|
|---------------------------------------------------------------------------|
|-15--0-0-0---14--0--0--0--13--0--0--0--0---13---0--0--0--------------------|
|-15p-0-0-0---14p-0--0--0--13p-0--0--0--0---13p--0--0--0--------------------|



                  |   Tremolo picked and gradually bend upto 11    |
|---------------------------------------------------------------------------|
|---------------------------------------------------------------------------|
|---10 10 10-10--10-10--10b^11----------------------------------------------|
|---------------------------------------------------------------------------|
|---------------------------------------------------------------------------|
|---------------------------------------------------------------------------|

|---------------------------------------------------------------------------|
|---------------------------------------------------------------------------|
|--11------14------11-----10-------7----------------------------------------|
|-------------------------8--------5----------------------------------------|
|--9-------12------9------8--------5----------------------------------------|
|--0-------0-------0------8--------5----------------------------------------|

|---------5------------------------------------------------------------------|
|---------6--------11----------8---------------------------------------------|
|---------7--------10----------7---------------------------------------------|
|---------7--------8-----------5------------3---------7----------------------|
|-----5------------8-----------5--------3----------7-------------------------|
|----------------8----------5-------3-----------7----------------------------|

|------5---------------------------------------------------------------------|
|------6-----------11-----x---x---8-----x-----6-----x---10-------------------|
|------7-----------10-----x---x---7-----x-----5-----x---9--------------------|
|------------------8------x---x---5-----x-----3-----x---7--------------------|
|---------------------------------------------3-----x---7--------------------|
|----------------------------------------------------------------------------|

|---------------------------------------------------------------------------|
|---------------------------------------------------------------------------|
|---------------------------------------------------------------------------|
|-3p0-0-0---2p0-0-0-1p0-0--0-0--1p0-0-0-2p0-0-0--3p0-0-0--------------------|
|---------------------------------------------------------3/----------------|
|---------------------------------------------------------3/----------------|

|---------------------------------------------------------------------------|
|---------------------------------------------------------------------------|
|---------------------------------------------------------------------------|
|---------------------------------------------------------------------------|
|-15--0-0-0---14--0--0--0--13--0--0--0--0---13---0--0--0--------------------|
|-15p-0-0-0---14p-0--0--0--13p-0--0--0--0---13p--0--0--0--------------------|



                  |   Tremolo picked and gradually bend upto 11    |
|---------------------------------------------------------------------------|
|---------------------------------------------------------------------------|
|---10 10 10-10--10-10--10b^11----------------------------------------------|
|---------------------------------------------------------------------------|
|---------------------------------------------------------------------------|
|---------------------------------------------------------------------------|

|---------------------------------------------------------------------------|
|---------------------------------------------------------------------------|
|--11------14------11-----10-------7----------------------------------------|
|-------------------------8--------5----------------------------------------|
|--9-------12------9------8--------5----------------------------------------|
|--0-------0-------0------8--------5----------------------------------------|

|---------5------------------------------------------------------------------|
|---------6--------11----------8---------------------------------------------|
|---------7--------10----------7---------------------------------------------|
|---------7--------8-----------5------------3---------7----------------------|
|-----5------------8-----------5--------3----------7-------------------------|
|----------------8----------5-------3-----------7----------------------------|

|------5--------------------------------------------------------------------|
|------6-----------11-----x---x---8-----x-----6-----x---10------------------|
|------7-----------10-----x---x---7-----x-----5-----x---9-------------------|
|------------------8------x---x---5-----x-----3-----x---7-------------------|
|---------------------------------------------3-----x---7-------------------|
|---------------------------------------------------------------------------|

   | You may pick these notes out  }
|------5--------------------------5-----------------------------------------|
|------6-----------11-----x---x---8-----x-----6-----x---10------------------|
|------7-----------10-----x---x---7-----x-----5-----x---9--------------7----|
|------5------------8-----x---x---5-----x-----3-----x---7--------------7----|
|-------------------8-------------5-----------3-----x---7--------------5----|
|---------------------------------------------------------------------------|

				SOLO
|-10b12--12--12--12--12-12-12--12b10--10-10--10--10--10--10--10-------------|
|---------------------------------------------------------------------------|
|---------------------------------------------------------------------------|
|---------------------------------------------------------------------------|
|---------------------------------------------------------------------------|
|---------------------------------------------------------------------------|



|-10p 8-------8---------------------------------------------------------------------------|
|--------10--------10--10  10\8---8---8\6--6----8-----------------------------------------|
|---------------------------------------------------10----7----10----7--7-7-7\5---5---5---|
|-----------------------------------------------------------------------------------------|
|-----------------------------------------------------------------------------------------|
|-----------------------------------------------------------------------------------------|


|---------------------------------------------------------------------------------|
|--------------6~~~---------------------------------------------------------------|
|--------5------------------5----7---5----8---------------------------------------|
|---5h7------7----------7---------------------------------------------------------|
|---------------------------------------------------------------------------------|
|---------------------------------------------------------------------------------|


|--3/5-5-5--5/8--8--8--8/10--10--10--10/12--12--12--12/13--13--13-|
|-----------------------------------------------------------------|
|-----------------------------------------------------------------|
|-----------------------------------------------------------------|
|-----------------------------------------------------------------|
|-----------------------------------------------------------------|

-13/15--15--15--15/17--17--17--17/20--20--20b22  hold---|
--------------------------------------------------------|
--------------------------------------------------------|
--------------------------------------------------------|
--------------------------------------------------------|
--------------------------------------------------------|

|-20h22p20-------------------------------------------------------------------------|
|-----------22-20b22~~~--20h22p20--------------------------------------------------|
|---------------------------------19~~~~-------------------------------------------|
|---------------------------------------------19~~~~~~~~~~-------------------------|
|----------------------------------------------------------------------------------|
|----------------------------------------------------------------------------------|

		       OUTRO

|---------5-------------------------------------------------------------------------|
|---------6--------11----------6-------8-----10-------------------------------------|
|---------7--------10----------5-------7-----9--------------------------------------|
|---------7--------8-----------3-------5-----7--------------------------------------|
|---------5--------8-----------3-------5-----7--------------------------------------|
|------------------8-----------3-------5-----7--------------------------------------|

|---------5-------------------------------------------------------------------------|
|---------6--------11----------6-------8-----10-------------------------------------|
|---------7--------10----------5-------7-----9--------------------------------------|
|---------7--------8-----------3-------5-----7--------------------------------------|
|---------5--------8-----------3-------5-----7--------------------------------------|
|------------------8-----------3-------5-----7--------------------------------------|

|---------5---------------------------------------------5---------------------------|
|---------6--------11----------8-------6-----10---------6---------------------------|
|---------7--------10----------7-------5-----9----------7---------------------------|
|---------7--------8-----------5-------3-----7----------7---------------------------|
|---------5--------8-----------5-------3-----7----------5---------------------------|
|------------------8-----------5-------3-----7--------------------------------------|


************************************

| /   slide up
| \   slide down
| h   hammer-on
| p   pull-off
| ~   vibrato
| +   harmonic
| x   Mute note
| b   Bend
| pb  Pre-bend
| br  Bend release
| pbr Pre-bend release
| brb Bend release bend

************************************
Tap to rate this tab
# A B C D E F G H I J K L M N O P Q R S T U V W X Y Z