Song name
# A B C D E F G H I J K L M N O P Q R S T U V W X Y Z

Chevelle - Prima Donna tab

Prima Donna
by Chevelle
Album: Hats Off to the Bull

Tabbed by: Jacob Kofal
e-mail: jacob_kofal@yahoo.com

Tuning: Drop B

B,F#,B,E,G#,c

d-strum down,accented
u-strum up,accented


intro


|--------------------------------------------------------------------------|
|--------------------------------------------------------------------------|
|-d14-d14-d12-d14-d15-d14-d12-d14-d14--d14-d14-d14-d12-u12-d12-d11-u11-d11-| 
|--------------------------------------------------------------------------|
|-d12-d12-d10-d12-d13-d12-d10-d12-d12--d12-d12-d12-d10-u10-d10-d9--u9--d9--| 
|--------------------------------------------------------------------------|

|----------------------------------------|
|----------------------------------------|
|11-11-11-11-11-11-11-11-11-11-11-11-11--|
|----------------------------------------|
|9--9--9--9--9--9--9--9--9--9--9--9--9---|
|----------------------------------------|



|--------------------------------------------------------------------------|
|--------------------------------------------------------------------------|
|-d14-d14-d12-d14-d15-d14-d12-d14-d14--d14-d14-d14-d12-u12-d12-d11-u11-d11-| 
|--------------------------------------------------------------------------|
|-d12-d12-d10-d12-d13-d12-d10-d12-d12--d12-d12-d12-d10-u10-d10-d9--u9--d9--| 
|--------------------------------------------------------------------------|

|----------------------------------------|
|----------------------------------------|
|11-11-11-11-11-11-11-11-11-11-11-11-11--|
|----------------------------------------|
|9--9--9--9--9--9--9--9--9--9--9--9--9---|
|----------------------------------------|


verse

|----------------------------------------------------------|
|----------------------------------------------------------|
|-11-11-11-11-11-11-11-11-11-11-11-11-11-11-11-11-d7-u7-d7-|
|-9--9--9--9--9--9--9--9--9--9--9--9--9--9--9--9--d5-u5-d5-|
|-9--9--9--9--9--9--9--9--9--9--9--9--9--9--9--9--d5-u5-d5-|
|-9--9--9--9--9--9--9--9--9--9--9--9--9--9--9--9--d5-u5-d5-|

|------------------------|
|------------------------|
|-d7-7-7-7-7-7--d6-7-7-7-|
|-d7-7-7-7-7-7--d7-7-7-7-|
|-d5-5-5-5-5-5--d5-5-5-5-|
|-d5-5-5-5-5-5--d5-5-5-5-|

|----------------------------------------------------------|
|----------------------------------------------------------|
|-11-11-11-11-11-11-11-11-11-11-11-11-11-11-11-11-d7-u7-d7-|
|-9--9--9--9--9--9--9--9--9--9--9--9--9--9--9--9--d5-u5-d5-|
|-9--9--9--9--9--9--9--9--9--9--9--9--9--9--9--9--d5-u5-d5-|
|-9--9--9--9--9--9--9--9--9--9--9--9--9--9--9--9--d5-u5-d5-|

|------------------|
|------------------|
|-4-4-4-4-4-4-4-4--|
|-2-2-2-2-2-2-2-2--|
|-2-2-2-2-2-2-2-2--|
|-2-2-2-2-2-2-2-2--|

|-----------------------------------------------------------------|
|-----------------------------------------------------------------|
|-2-2-2-2-2-2-4-4-4-4-4-4-4-4-4-4-7-7-7-7-7-7-7-7-7-7-7-7-7-7-7-7-|
|-0-0-0-0-0-0-2-2-2-2-2-2-2-2-2-2-5-5-5-5-5-5-7-7-7-7-7-7-7-7-7-7-|
|-0-0-0-0-0-0-2-2-2-2-2-2-2-2-2-2-5-5-5-5-5-5-5-5-5-5-5-5-5-5-5-5-|
|-0-0-0-0-0-0-2-2-2-2-2-2-2-2-2-2-5-5-5-5-5-5---------------------|

|-----------------------------------------------------------------|
|-----------------------------------------------------------------|
|-2-2-2-2-2-2-4-4-4-4-4-4-4-4-4-4-7-7-7-7-7-7-7-7-7-7-7-7-7-7-7-7-|
|-0-0-0-0-0-0-2-2-2-2-2-2-2-2-2-2-5-5-5-5-5-5-7-7-7-7-7-7-7-7-7-7-|
|-0-0-0-0-0-0-2-2-2-2-2-2-2-2-2-2-5-5-5-5-5-5-5-5-5-5-5-5-5-5-5-5-|
|-0-0-0-0-0-0-2-2-2-2-2-2-2-2-2-2-5-5-5-5-5-5---------------------|


Chorus


|-----------------------------------------------|
|-----------------------------------------------|
|-d11-u11-d11--d9-u9-d9--d7-u7-d7-7-7-7-7-7-7-7-|  X2
|-d9--u9--d9---d7-u7-d9--d5-u5-d5-5-5-5-5-5-5-5-|
|-d9--u9--d9---d7-u7-d9--d5-u5-d5-5-5-5-5-5-5-5-|
|-d9--u9--d9---d7-u7-d9--d5-u5-d5-5-5-5-5-5-5-5-|

|-----------------------------------------------|
|-----------------------------------------------|
|-d14-u14-d14--d9-u9-d9--d7-u7-d7-7-7-7-7-7-7-7-|
|-d12-u12-d12--d7-u7-d7--d5-u5-d5-5-5-5-5-5-5-5-|
|-d12-u12-d12--d7-u7-d7--d5-u5-d5-5-5-5-5-5-5-5-|
|-d12-u12-d12--d7-u7-d7--d5-u5-d5-5-5-5-5-5-5-5-|

|-----------------------------------------------|
|-----------------------------------------------|
|-d11-u11-d11--d9-u9-d9--d7-u7-d7-7-7-7-7-7-7-7-| 
|-d9--u9--d9---d7-u7-d9--d5-u5-d5-5-5-5-5-5-5-5-|
|-d9--u9--d9---d7-u7-d9--d5-u5-d5-5-5-5-5-5-5-5-|
|-d9--u9--d9---d7-u7-d9--d5-u5-d5-5-5-5-5-5-5-5-|

preverse

|--------------------------------------------------------------------------|
|--------------------------------------------------------------------------|
|-d14-d14-d12-d14-d15-d14-d12-d14-d14--d14-d14-d14-d12-u12-d12-d11-u11-d11-| 
|--------------------------------------------------------------------------|
|-d12-d12-d10-d12-d13-d12-d10-d12-d12--d12-d12-d12-d10-u10-d10-d9--u9--d9--| 
|--------------------------------------------------------------------------|

|----------------------------------------|
|----------------------------------------|
|11-11-11-11-11-11-11-11-11-11-11-11-11--|
|----------------------------------------|
|9--9--9--9--9--9--9--9--9--9--9--9--9---|
|----------------------------------------|



|--------------------------------------------------------------------------|
|--------------------------------------------------------------------------|
|-d14-d14-d12-d14-d15-d14-d12-d14-d14--d14-d14-d14-d12-u12-d12-d11-u11-d11-| 
|--------------------------------------------------------------------------|
|-d12-d12-d10-d12-d13-d12-d10-d12-d12--d12-d12-d12-d10-u10-d10-d9--u9--d9--| 
|--------------------------------------------------------------------------|

|----------------------------------------|
|----------------------------------------|
|11-11-11-11-11-11-11-11-11-11-11-11-11--|
|----------------------------------------|
|9--9--9--9--9--9--9--9--9--9--9--9--9---|
|----------------------------------------|

verse

|----------------------------------------------------------|
|----------------------------------------------------------|
|-11-11-11-11-11-11-11-11-11-11-11-11-11-11-11-11-d7-u7-d7-|
|-9--9--9--9--9--9--9--9--9--9--9--9--9--9--9--9--d5-u5-d5-|
|-9--9--9--9--9--9--9--9--9--9--9--9--9--9--9--9--d5-u5-d5-|
|-9--9--9--9--9--9--9--9--9--9--9--9--9--9--9--9--d5-u5-d5-|

|------------------------|
|------------------------|
|-d7-7-7-7-7-7--d6-7-7-7-|
|-d7-7-7-7-7-7--d7-7-7-7-|
|-d5-5-5-5-5-5--d5-5-5-5-|
|-d5-5-5-5-5-5--d5-5-5-5-|

|----------------------------------------------------------|
|----------------------------------------------------------|
|-11-11-11-11-11-11-11-11-11-11-11-11-11-11-11-11-d7-u7-d7-|
|-9--9--9--9--9--9--9--9--9--9--9--9--9--9--9--9--d5-u5-d5-|
|-9--9--9--9--9--9--9--9--9--9--9--9--9--9--9--9--d5-u5-d5-|
|-9--9--9--9--9--9--9--9--9--9--9--9--9--9--9--9--d5-u5-d5-|

|------------------|
|------------------|
|-4-4-4-4-4-4-4-4--|
|-2-2-2-2-2-2-2-2--|
|-2-2-2-2-2-2-2-2--|
|-2-2-2-2-2-2-2-2--|

|-----------------------------------------------------------------|
|-----------------------------------------------------------------|
|-2-2-2-2-2-2-4-4-4-4-4-4-4-4-4-4-7-7-7-7-7-7-7-7-7-7-7-7-7-7-7-7-|
|-0-0-0-0-0-0-2-2-2-2-2-2-2-2-2-2-5-5-5-5-5-5-7-7-7-7-7-7-7-7-7-7-|
|-0-0-0-0-0-0-2-2-2-2-2-2-2-2-2-2-5-5-5-5-5-5-5-5-5-5-5-5-5-5-5-5-|
|-0-0-0-0-0-0-2-2-2-2-2-2-2-2-2-2-5-5-5-5-5-5---------------------|

|-----------------------------------------------------------------|
|-----------------------------------------------------------------|
|-2-2-2-2-2-2-4-4-4-4-4-4-4-4-4-4-7-7-7-7-7-7-7-7-7-7-7-7-7-7-7-7-|
|-0-0-0-0-0-0-2-2-2-2-2-2-2-2-2-2-5-5-5-5-5-5-7-7-7-7-7-7-7-7-7-7-|
|-0-0-0-0-0-0-2-2-2-2-2-2-2-2-2-2-5-5-5-5-5-5-5-5-5-5-5-5-5-5-5-5-|
|-0-0-0-0-0-0-2-2-2-2-2-2-2-2-2-2-5-5-5-5-5-5---------------------|

Chorus


|-----------------------------------------------|
|-----------------------------------------------|
|-d11-u11-d11--d9-u9-d9--d7-u7-d7-7-7-7-7-7-7-7-|  X2
|-d9--u9--d9---d7-u7-d9--d5-u5-d5-5-5-5-5-5-5-5-|
|-d9--u9--d9---d7-u7-d9--d5-u5-d5-5-5-5-5-5-5-5-|
|-d9--u9--d9---d7-u7-d9--d5-u5-d5-5-5-5-5-5-5-5-|

|-----------------------------------------------|
|-----------------------------------------------|
|-d14-u14-d14--d9-u9-d9--d7-u7-d7-7-7-7-7-7-7-7-|
|-d12-u12-d12--d7-u7-d7--d5-u5-d5-5-5-5-5-5-5-5-|
|-d12-u12-d12--d7-u7-d7--d5-u5-d5-5-5-5-5-5-5-5-|
|-d12-u12-d12--d7-u7-d7--d5-u5-d5-5-5-5-5-5-5-5-|

|------------------------------------------------|
|------------------------------------------------|
|-d11-u11-d11--d9-u9-d9--d7--7-7-7-7-7-7-7-7-7-7-| 
|-d9--u9--d9---d7-u7-d9--d5--5-5-5-5-5-5-5-7-7-7-|
|-d9--u9--d9---d7-u7-d9--d5--5-5-5-5-5-5-5-5-5-5-|
|-d9--u9--d9---d7-u7-d9--d5--5-5-5-5-5-5-5-5-5-5-|

|---------------------------|
|---------------------------|
|-7-7-7-7-7-7-7\9-9-9-9-9-9-|
|-7-7-7-7-7-7-7\9-9-9-9-9-9-|
|-5-5-5-5-5-5-5\7-9-9-9-9-9-|
|-5-5-5-5-5-5-5\7-9-9-9-9-9-|

bridge

|-------------------------------------------------|
|-------------------------------------------------|
|-7-7-7-7-7-7-7-7-7-7-7-7-7-7-7-7-7-7-------------|
|-5-5-5-5-5-5-5-5-5-5-5-5-7-7-7-7-7-7-7-7-7-7-7-7-|
|-5-5-5-5-5-5-5-5-5-5-5-5-5-5-5-5-5-5-7-7-7-7-7-7-|
|-5-5-5-5-5-5-5-5-5-5-5-5-------------7-7-7-7-7-7-|

|-------------------------------------------------|
|-------------------------------------------------|
|-7-7-7-7-7-7-7-7-7-7-7-7-7-7-7-7-7-7-------------|
|-5-5-5-5-5-5-5-5-5-5-5-5-7-7-7-7-7-7-7-7-7-7-7-7-|
|-5-5-5-5-5-5-5-5-5-5-5-5-5-5-5-5-5-5-7-7-7-7-7-7-|
|-5-5-5-5-5-5-5-5-5-5-5-5-------------7-7-7-7-7-7-|

|-------------------------------------------------|
|-------------------------------------------------|
|-7-7-7-7-7-7-7-7-7-7-7-7-7-7-7-7-7-7-------------|
|-5-5-5-5-5-5-5-5-5-5-5-5-7-7-7-7-7-7-7-7-7-7-7-7-|
|-5-5-5-5-5-5-5-5-5-5-5-5-5-5-5-5-5-5-7-7-7-7-7-7-|
|-5-5-5-5-5-5-5-5-5-5-5-5-------------7-7-7-7-7-7-|

|-------------------------------------------------|
|-------------------------------------------------|
|-7-7-7-7-7-7-7-7-7-7-7-7-7-7-7-7-7-7-------------|
|-5-5-5-5-5-5-5-5-5-5-5-5-7-7-7-7-7-7-7-7-7-7-7-7-|
|-5-5-5-5-5-5-5-5-5-5-5-5-5-5-5-5-5-5-7-7-7-7-7-7-|
|-5-5-5-5-5-5-5-5-5-5-5-5-------------7-7-7-7-7-7-|


Chorus


|-----------------------------------------------|
|-----------------------------------------------|
|-d11-u11-d11--d9-u9-d9--d7-u7-d7-7-7-7-7-7-7-7-|  X2
|-d9--u9--d9---d7-u7-d9--d5-u5-d5-5-5-5-5-5-5-5-|
|-d9--u9--d9---d7-u7-d9--d5-u5-d5-5-5-5-5-5-5-5-|
|-d9--u9--d9---d7-u7-d9--d5-u5-d5-5-5-5-5-5-5-5-|

|-----------------------------------------------|
|-----------------------------------------------|
|-d14-u14-d14--d9-u9-d9--d7-u7-d7-7-7-7-7-7-7-7-|
|-d12-u12-d12--d7-u7-d7--d5-u5-d5-5-5-5-5-5-5-5-|
|-d12-u12-d12--d7-u7-d7--d5-u5-d5-5-5-5-5-5-5-5-|
|-d12-u12-d12--d7-u7-d7--d5-u5-d5-5-5-5-5-5-5-5-|

|---------------------------------------------------|
|---------------------------------------------------|
|-d11-u11-d11--d9-u9-d9--d7-u7-d7-7-7-7-7-7-7-7-----| 
|-d9--u9--d9---d7-u7-d9--d5-u5-d5-5-5-5-5-5-5-5-----|
|-d9--u9--d9---d7-u7-d9--d5-u5-d5-5-5-5-5-5-5-5---5-|
|-d9--u9--d9---d7-u7-d9--d5-u5-d5-5-5-5-5-5-5-5---5-|
Tap to rate this tab
# A B C D E F G H I J K L M N O P Q R S T U V W X Y Z