Song name
# A B C D E F G H I J K L M N O P Q R S T U V W X Y Z

Chevelle - Send The Pain Below tab

Artist: Chevelle
Song: Send The Pain Below
Album: Wonder What's Next
Tuning: Drop B (Low E string down 5 steps, and the rest 3 half-steps)

Key:
x = Mute
i = 11
p = Pull-off

Intro (Figure out strumming)
(0:00~0:10)

Db|----------------------------------------------------------------------|
Ab|----------------------------------------------------------------------|
E |---7-------------i------------------i---------------------------------|
B |---7------9------x------5-----------x--(Let ring)---------------------|
Gb|---5------9------9------5-----------9---------------------------------|
B |----------9------0------5-----------0---------------------------------|


Verse
(0:31~0:59)

(If you play the low E open '0', it has a fuller sound, otherwise just mute it) Listen 
closely for the variation at the end of each measure.
Db|--------------------------------------------------------------------|
Ab|--------------------------------------------------------------------|
E |--i---i---i---i---i---i---i---9-------------------------------------|
B |--x---x---x---x---x---x---x---x---(repeat)--------------------------|
Gb|--9---9---9---9---9---9---9---7-------------------------------------|
B |--0---0---0---0---0---0---0---0-------------------------------------|


Verse 2/Prechorus
(1:00~1:12)


Db|----------------------------------------------------------------------|
Ab|----------------------------------------------------------------------|
E |----------------i-----------------------------------------------------|
B |----55555555----x---(continue this 'till chorus)----------------------|
Gb|----55555555----9-----------------------------------------------------|
B |----55555555----0-----------------------------------------------------|


Chorus (Same as intro)
(1:13~1:33)

Db|--------------------------------------------------------------------|
Ab|--------------------------------------------------------------------|
E |-77777777--------------i-i-i-i-i-i-i-i------------------------------|
B |-77777777---99999999---x-x-x-x-x-x-x-x---55555555-------------------|
Gb|-55555555---99999999---9-9-9-9-9-9-9-9---55555555-------------------|
B |------------99999999---0-0-0-0-0-0-0-0---55555555-------------------|

Repeat as necessary.

Bridge
(2:36~3:09)

Db|--------------------------------------------------------------------|
Ab|--------------------------------------------------------------------|
E |--------------------------------------------------------------------|
B |---0-0--2-2--2p0--0-0-0-0--2/5--5-5-5p0-----------------------------|
Gb|---0-0--2-2--2p0--0-0-0-0--2/5--5-5-5p0-----------------------------|
B |---0-0--2-2--2p0--0-0-0-0--2/5--5-5-5p0-----------------------------|


(3:56)
After last chorus, end on this chord...

Db|---------------------------------------------------------------------|
Ab|---------------------------------------------------------------------|
E |-------i-------------------------------------------------------------|
B |-------x-------------------------------------------------------------|
Gb|-------9------(Let ring)---------------------------------------------|
B |-------0-------------------------------------------------------------|


Rate please :)
Tap to rate this tab
 
# A B C D E F G H I J K L M N O P Q R S T U V W X Y Z