Song name
# A B C D E F G H I J K L M N O P Q R S T U V W X Y Z

Chevelle - Dont Fake This tab

Help us improve GuitareTab! Take a short survey!
Dropped B Tuning (one and a half steps down) 
B F# B E G# C# (low to high)

Intro/Chorus (play intro clean 2X, then distorted)
|--------------------------------------|
|--------------------------------------|
|--------------------------------------|
|---2-2-2-2-2-2-2-2---5-5-5-5---9-9-9-9|
|---2-2-2-2-2-2-2-2---5-5-5-5---9-9-9-9|
|---2-2-2-2-2-2-2-2---5-5-5-5---9-9-9-9|

then fade into the verse...


|-----------------------------------|
|-----------------------------------|
|-----------------------------------|
|----2~-----------------------------|
|----2~-----------------------------|
|----2~-----------------------------|

Verse 1 (clean)
|-----------------------------------------12-----|
|---12-12-12-12-12-17---or--12-12-12-12-12-------|
|------------------------------------------------|
|------------------------------------------------|
|------------------------------------------------|                          
|------------------------------------------------|

Pre-Chorus 1: Staccoto notes (Distortion on ) 
|---------------------|
|---------------------|
|---------------------|
|---2-2---2---2-2-----|
|---2-2---2---2-2-----|
|---2-2---2---2-2-----|
dont fake this...

2nd Verse:(distorted)
|-----------------------------------|
|-----------------------------------|
|-----------------------------------|
|-22-22-2-55-55-5--99-99-9--55-55-5-|
|-22-22-2-55-55-5--99-99-9--55-55-5-|
|-22-22-2-55-55-5--99-99-9--55-55-5-|
pm..................................

Fill 1 (distorted)
|-------------------|
|-------------------|
|-------------------|
|---22-22---0h222---|
|---22-22---0h222---|
|---22-22---0h222---|

Bridge 
|------------------------------------------------|
|------------------------------------------------|
|------------------------------------------------|
|---22-22---0h222--------------------------------|
|---22-22---0h222--------------------------------|
|---22-22---0h222--------------------------------|

pm.......   (play this little part palm-muted twice,
and then play the Fill 1 (above) regularly twice
(listen to the damn song!)

then...

Fill 2 (tremelo pick)
|------------------------------------------------|
|------------------------------------------------|
|---777777/11-11-11-11-11-11---------------------|
|---xxxxxx--x--x--x--x--x--x---------------------|
|---555555/-9--9--9--9--9--9---------------------|
|------------------------------------------------|

End on

C#|-----------------------------------|
G#|-----------------------------------|
E |-----------------------------------|
B |----22-22--------------------------|
F#|----22-22--------------------------|
B |----22-22--------------------------|

There you go...easy stuff
Related for Dont Fake This tab