Song name
# A B C D E F G H I J K L M N O P Q R S T U V W X Y Z

Chevelle - Sleep Apnea tab

Sleep Apnea
Chevelle
Drop C# Tuning
(C#-G#-C#-F#-A#-D#)

Intro
--------------------------------------------------|
--------------------------------------------------|
--------------------------------------------------|
--------------------------------------------------|
--------------------------------------------------|
-10-0-0-12-0-0-10-0-0-15-0-0----------------------|

Main Riff
--------------------------------------------------|
--------------------------------------------------|
--------------------------------------------------|
--------------------------------------------------|
--------------------------------------------------|
-12-0-12-0-12h15-0-0------------------------------|

Verse
--------------------------------------------------|
--------------------------------------------------|
--------------------------------------------------|
--------------------------------------------------|
--------------------------------------------------|
-12-0-12-0-12h15-0-0------------------------------|

Chorus
--------------------------------------------------|
--------------------------------------------------|
-7-10-5-------------------------------------------|
-7-10-5-5-----------------------------------------|
-5-8--3-5-----------------------------------------|
--------5-----------------------------------------|
-Play each chord 8 times

Verse
--------------------------------------------------|
--------------------------------------------------|
--------------------------------------------------|
--------------------------------------------------|
--------------------------------------------------|
-12-0-12-0-12h15-0-0------------------------------|

Chorus
--------------------------------------------------|
--------------------------------------------------|
-7-10-5-------------------------------------------|
-7-10-5-5-----------------------------------------|
-5-8--3-5-----------------------------------------|
--------5-----------------------------------------|
-Play each chord 8 times

Post-Chorus
--------------------------------------------------|
--------------------------------------------------|
--------------------------------------------------|
--------------------------------------------------|
--------------------------------------------------|
-12-0-12-0-12h15-0-0------------------------------|

Bridge
--------------------------------------------------|
--------------------------------------------------|
--------------------------------------------------|
--------------------------------------------------|
-15-12-10-12-10-12-9-10-9-7--7--------------------|
-15-12-10-12-10-12-9-10-9-7--7--------------------|x3

--------------------------------------------------|
--------------------------------------------------|
--------------------------------------------------|
--------------------------------------------------|
-15-12-10-12-10-12--------------------------------|
-15-12-10-12-10-12--------------------------------|

Post-Bridge
--------------------------------------------------|
--------------------------------------------------|
--------------------------------------------------|
--------------------------------------------------|
--------------------------------------------------|
-10-0-0-12-0-0-10-0-0-15-0-0----------------------|

Chorus
--------------------------------------------------|
--------------------------------------------------|
-7-10-5-------------------------------------------|
-7-10-5-5-----------------------------------------|
-5-8--3-5-----------------------------------------|
--------5-----------------------------------------|
-Play each chord 8 times

Outro
-------------------------------|------------------|
-------------------------------|------------------|
-------------------------------|------------------|
-------------------------------|--12--0-----------|
-------------------------------|--12--0-----------|
-10-0-0-12-0-0-10-0-0-15-0-0---|--12--0-----------|
Tap to rate this tab
# A B C D E F G H I J K L M N O P Q R S T U V W X Y Z