Song name
# A B C D E F G H I J K L M N O P Q R S T U V W X Y Z

Chevelle - Until Youre Reformed tab

Help us improve GuitareTab! Take a short survey!
TUNING: B F# B E G# C#
NOTE: 
()= harmonics
x = palm muted
/ = slide
~ = let ring
< = brief pickscrape





  INTRO - X4 ( HARMONICS )

 |-----------------------------------|
 |-----------------------------------|
 |-----------------------------------|
 |------------------------------(5)~~|  
 |------------(5)~~-----(4)~~--------|
 |----(4)~~--------------------------|

  VERSE - X4 ( PALM MUTED )

 |------------------------------------------------|
 |------------------------------------------------|
 |------------------------------------------------|
 |------------------------------------------------|
 |-----55--5555--77--7777--99--9999--99--9999-----|x
 |-----00--0000--00--0000--00--0000--00--0000-----|

  CHORUS - X4

 |-----------------------------------------------|
 |-----------------------------------------------|
 |--11-11-------11-11-------11-11-------7-/-6-6--|
 |--x--x--------x--x--------x--x--------x-/-x-x--| 
 |--9--9--------9--9--------9--9--------5-/-4-4--|
 |---------000--------000----------000-----------|
           xxx        xxx          xxx

  POST CHORUS RIFF

 |-----------------------------------|
 |-----------------------------------|
 |---------11-11-----6-6-----9-9-----|
 |--0-0-0--x--x---0--x-x--0--x-x--0--|
 |--0-0-0--9--9---0--4-4--0--7-7--0--|
 |--0-0-0---------0-------0-------0--|
    x x x         x       x       x

  INTRO...THEN
  POST CHORUS RIFF OUTRO

 |---------------|
 |---------------|
 |---------------|
 |-----0-0-0-----| 
 |-----0-0-0-----|
 |-----0-0-0-----|
       x x x

  VERSE
  CHORUS
  POST CHORUS RIFF
  THEN...BREAKDOWN

 |-------------------------------|
 |-------------------------------|
 |-------------------------------|
 |---0~~------------0~~----------| 
 |---0~~-------------------------|
 |---0~~--------------------<<<--|

  POST CHORUS RIFF and BREAKDOWN x3 
  POST CHORUS RIFF
  INTRO
  POST CHORUS RIFF OUTRO
  THEN...FILL X4

 |-------------------------------|
 |-------------------------------|
 |--12-12-12-12--/--11-11-11-11--|
 |--x--x--x--x---/--x--x--x--x---|
 |--10-10-10-10--/--9--9--9--9---|
 |-------------------------------|

  CHORUS
  THEN...ON 4TH REPETITION

 |--------------------------------------------------------|
 |--------------------------------------------------------|
 |--11-11-11-11-11-11--/--12-12-12--/--14-14-14-14-14-14--|
 |--x--x--x--x--x--x---/--x--x--x---/--x--x--x--x--x--x---|
 |--9--9--9--9--9--9---/--10-10-10--/--12-12-12-12-12-12--|
 |--------------------------------------------------------|

  CONTINUATION

 |--------------------------------------------|
 |--------------------------------------------|
 |--/--12-12-12--/--14-14-14-14-14-14--/--12--|
 |--/--x--x--x---/--x--x--x--x--x--x---/--x---|
 |--/--10-10-10--/--12-12-12-12-12-12--/--10--|
 |--------------------------------------------|

  CHORUS X2
  POST CHORUS RIFF
  THEN...END ON

 |--------------|
 |--------------|
 |-----7~~~-----|
 |-----7~~~-----|
 |-----5~~~-----|
 |--------------| 
Related for Until Youre Reformed tab