Song name
# A B C D E F G H I J K L M N O P Q R S T U V W X Y Z

Chevelle - Jars tab

Chevelle
Jars

tuning- Drop B

Full credit to MetalSlayer09 and Jimmy Epolito on youtube.  I've tried to keep
MetalSlayer09's timing with the lyrics, but some of the bars are too small. "|" denotes 
where the
chord changes occur in the chorus sections. I also used Chevelle's DVD "Any Last Words" 
for reference.

intro/verse

   Hold            onto  chance        Lest we bleed ourselves                  then
c#-----------------------------------------------------------------------------------|
g#-----------------------------------------------------------------------------------|
e------------------------------------------------------------------------------------|
b------------------------------------------------------------------------------------|
f#-----------------------------------------------------------------------------------|
b-12-12-0-12-15-15-0-15-10-10-0-10-8-8-0-8--12-12-0-12-15-15-0-15-10-10-0-10-8-8-0-8-|


   save            for the pets        They're the lonliest              put  into
c#-----------------------------------------------------------------------------------|
g#-----------------------------------------------------------------------------------|
e------------------------------------------------------------------------------------|
b------------------------------------------------------------------------------------|
f#------------------------------------------------------------------------10-8-8-0-8-|
b-12-12-0-12-15-15-0-15-10-10-0-10-8-8-0-8--12-12-0-12-15-15-0-15-10-10-0-10-8-8-0-8-|


pre chorus

   jars               we'll save this earth put into jars      we'll save this earth
c#---------------------------------------------------------------------------------|
g#---------------------------------------------------------------------------------|
e----------------------------------------------------------------------------------|
b----7---4~---7---4-7~---7---4~---7---4-7~---7---4~---7---4-7~---7---4~---7---4-7~-|
f#-5---5----5---5------5---5----5---5------5---5----5---5------5---5----5---5------|
b----------------------------------------------------------------------------------|

chorus

  we can't

  /pick scrape/

  both become the same | pawn thats made to fall
c#-----------------------------------------|
g#-----------------------------------------|
e--7-7-7-7-7-7-7-7-10-10-10-10-10-10-10-10-|
b--7-7-7-7-7-7-7-7-10-10-10-10-10-10-10-10-|
f#-5-5-5-5-5-5-5-5--8--8--8--8--8--8--8--8-|
b------------------------------------------|

  oil that tastes like blood | stole the summer scent from
c#---------------------------------|
g#---------------------------------|
e----------------------------------|
b--8-8-8-8-8-8-8-8-5-5-5-5-5-5-5-5-|
f#-8-8-8-8-8-8-8-8-5-5-5-5-5-5-5-5-|
b--8-8-8-8-8-8-8-8-5-5-5-5-5-5-5-5-|

  me to you your stabbing | me through you your stabbing
c#-----------------------------------------|
g#-----------------------------------------|
e--7-7-7-7-7-7-7-7-10-10-10-10-10-10-10-10-|
b--7-7-7-7-7-7-7-7-10-10-10-10-10-10-10-10-|
f#-5-5-5-5-5-5-5-5--8--8--8--8--8--8--8--8-|
b------------------------------------------|

  you through him and betting | most of this
c#------------------------------------------|
g#------------------------------------------|
e-------------------------------------------|
b---10-10-10-10-10-10-10-10-8-8-8-8-8-8-8-8-|
f#--10-10-10-10-10-10-10-10-8-8-8-8-8-8-8-8-|
b---10-10-10-10-10-10-10-10-8-8-8-8-8-8-8-8-|

  world              we'll add enough of the  world
c#--------------------------------------------------------------------------|
g#--------------------------------------------------------------------------|
e---------------------------------------------------------------------------|
b---------------------------------------------------------------------------|
f#12-12-0-12-15-15-0-15-10-10-0-10-8-8-0-8-3-3-0-3-7-7-0-7-5-5-0-5-5-8-10-0-|
b-12-12-0-12-15-15-0-15-10-10-0-10-8-8-0-8-3-3-0-3-7-7-0-7-5-5-0-5-5-8-10-0-|

Verse 2

   steal            from  yourselves   it never felt so good                     and
c#-----------------------------------------------------------------------------------|
g#-----------------------------------------------------------------------------------|
e------------------------------------------------------------------------------------|
b------------------------------------------------------------------------------------|
f#-----------------------------------------------------------------------------------|
b-12-12-0-12-15-15-0-15-10-10-0-10-8-8-0-8--12-12-0-12-15-15-0-15-10-10-0-10-8-8-0-8-|


   feed              from their hand's confused by opposites              put  into
c#-----------------------------------------------------------------------------------|
g#-----------------------------------------------------------------------------------|
e------------------------------------------------------------------------------------|
b------------------------------------------------------------------------------------|
f#------------------------------------------------------------------------10-8-8-0-8-|
b-12-12-0-12-15-15-0-15-10-10-0-10-8-8-0-8--12-12-0-12-15-15-0-15-10-10-0-10-8-8-0-8-|


pre chorus

   jars               we'll save this earth put into jars     we'll save this earth
c#---------------------------------------------------------------------------------|
g#---------------------------------------------------------------------------------|
e----------------------------------------------------------------------------------|
b----7---4~---7---4-7~---7---4~---7---4-7~---7---4~---7---4-7~---7---4~---7---4-7~-|
f#-5---5----5---5------5---5----5---5------5---5----5---5------5---5----5---5------|
b----------------------------------------------------------------------------------|

chorus

  we can't

  /pick scrape/

  both become the same | pawn thats made to fall
c#-----------------------------------------|
g#-----------------------------------------|
e--7-7-7-7-7-7-7-7-10-10-10-10-10-10-10-10-|
b--7-7-7-7-7-7-7-7-10-10-10-10-10-10-10-10-|
f#-5-5-5-5-5-5-5-5--8--8--8--8--8--8--8--8-|
b------------------------------------------|

  oil that tastes like blood | stole the summer scent from
c#---------------------------------|
g#---------------------------------|
e----------------------------------|
b--8-8-8-8-8-8-8-8-5-5-5-5-5-5-5-5-|
f#-8-8-8-8-8-8-8-8-5-5-5-5-5-5-5-5-|
b--8-8-8-8-8-8-8-8-5-5-5-5-5-5-5-5-|

  me to you your stabbing | me through you your stabbing
c#-----------------------------------------|
g#-----------------------------------------|
e--7-7-7-7-7-7-7-7-10-10-10-10-10-10-10-10-|
b--7-7-7-7-7-7-7-7-10-10-10-10-10-10-10-10-|
f#-5-5-5-5-5-5-5-5--8--8--8--8--8--8--8--8-|
b------------------------------------------|

  you through him and betting | most of this
c#-----------------------------------------|
g#-----------------------------------------|
e------------------------------------------|
b--10-10-10-10-10-10-10-10-8-8-8-8-8-8-8-8-|
f#-10-10-10-10-10-10-10-10-8-8-8-8-8-8-8-8-|
b--10-10-10-10-10-10-10-10-8-8-8-8-8-8-8-8-|

  world              we'll add enough of the  world
c#--------------------------------------------------------------------------|
g#--------------------------------------------------------------------------|
e---------------------------------------------------------------------------|
b---------------------------------------------------------------------------|
f#12-12-0-12-15-15-0-15-10-10-0-10-8-8-0-8-3-3-0-3-7-7-0-7-5-5-0-5-5-8-10-0-|
b-12-12-0-12-15-15-0-15-10-10-0-10-8-8-0-8-3-3-0-3-7-7-0-7-5-5-0-5-5-8-10-0-|

Interlude (Both Lead and Rhythm)

LEAD

   this world                                      we'll add    enough
c#-17-17-17-17-17-17-17-17-15-15-15-15-13-13-13-12-12-12-12------------|
g#---------------------------------------------------------13-13-13-13-|
e----------------------------------------------------------------------|
b----------------------------------------------------------------------|
f#---------------------------------------------------------------------|
b----------------------------------------------------------------------|

   enough            of the       world
c#---------------------------------------12-12-12-12-10-10-10-10-10-10-10-10-|
g#---------------------------13-13-13-13-------------------------------------|
e-14-14-14-14-14-14-14-14-14-------------------------------------------------|
b----------------------------------------------------------------------------|
f#---------------------------------------------------------------------------|
b----------------------------------------------------------------------------|

RHYTHM (BASS)

  this world              we'll add enough of the  world
c#--------------------------------------------------------------------------|
g#--------------------------------------------------------------------------|
e---------------------------------------------------------------------------|
b---------------------------------------------------------------------------|
f#12-12-0-12-15-15-0-15-10-10-0-10-8-8-0-8-3-3-0-3-7-7-0-7-5-5-0-5-5-8-10-0-|
b-12-12-0-12-15-15-0-15-10-10-0-10-8-8-0-8-3-3-0-3-7-7-0-7-5-5-0-5-5-8-10-0-|

followed by

                                            feeling manic for a day
   depends
c#-------------------------------------------------------------------------------------------------|
g#-------------------------------------------------------------------------------------------------|
e--------------------------------------------------------------------------------------------------|
b--------------------------------------------------------------------------------------------------|
f#-0^12^15^12-12-0^12^15^12-12-0^12^15^12-12-10-10-0^12^15^12-12-0^12^15^12-12-0^12^15^12-12-10-10-|
b--0^12^15^12-12-0^12^15^12-12-0^12^15^12-12-10-10-0^12^15^12-12-0^12^15^12-12-0^12^15^12-12-10-10-|

 on the trends                              depends  on the surface     and if the sun
never sets
c#------------------------------------------------------------------------------------------------|
g#------------------------------------------------------------------------------------------------|
e-------------------------------------------------------------------------------------------------|
b-------------------------------------------------------------------------------------------------|
f#-0^12^15^12-12-0^12^15^12-12-0^12^15^12-12-10-10-0^12^15^12-12-0^12^15^12-12-0^12^15^12-12-8-10-|
b--0^12^15^12-12-0^12^15^12-12-0^12^15^12-12-10-10-0^12^15^12-12-0^12^15^12-12-0^12^15^12-12-8-10-|

chorus

  we can't

  /pick scrape/

  both become the same | pawn thats made to fall
c#-----------------------------------------|
g#-----------------------------------------|
e--7-7-7-7-7-7-7-7-10-10-10-10-10-10-10-10-|
b--7-7-7-7-7-7-7-7-10-10-10-10-10-10-10-10-|
f#-5-5-5-5-5-5-5-5--8--8--8--8--8--8--8--8-|
b------------------------------------------|

  oil that tastes like blood | stole the summer scent from
c#---------------------------------|
g#---------------------------------|
e----------------------------------|
b--8-8-8-8-8-8-8-8-5-5-5-5-5-5-5-5-|
f#-8-8-8-8-8-8-8-8-5-5-5-5-5-5-5-5-|
b--8-8-8-8-8-8-8-8-5-5-5-5-5-5-5-5-|

  me to you your stabbing | me through you your stabbing
c#-----------------------------------------|
g#-----------------------------------------|
e--7-7-7-7-7-7-7-7-10-10-10-10-10-10-10-10-|
b--7-7-7-7-7-7-7-7-10-10-10-10-10-10-10-10-|
f#-5-5-5-5-5-5-5-5--8--8--8--8--8--8--8--8-|
b------------------------------------------|

  you through him and betting | most of this
c#-----------------------------------------|
g#-----------------------------------------|
e------------------------------------------|
b--10-10-10-10-10-10-10-10-8-8-8-8-8-8-8-8-|
f#-10-10-10-10-10-10-10-10-8-8-8-8-8-8-8-8-|
b--10-10-10-10-10-10-10-10-8-8-8-8-8-8-8-8-|

   world           we'll  add  enough  of  the
c#-----------------------------------------|
g#-----------------------------------------|
e--7-7-7-7-7-7-7-7-10-10-10-10-10-10-10-10-|
b--7-7-7-7-7-7-7-7-10-10-10-10-10-10-10-10-|
f#-5-5-5-5-5-5-5-5--8--8--8--8--8--8--8--8-|
b------------------------------------------|

   world
c#---------------------------------|
g#---------------------------------|
e----------------------------------|
b--8-8-8-8-8-8-8-8-5-5-5-5-5-5-5-5-|
f#-8-8-8-8-8-8-8-8-5-5-5-5-5-5-5-5-|
b--8-8-8-8-8-8-8-8-5-5-5-5-5-5-5-5-|

   its the main thing you shout | till the bitter
c#-----------------------------------------|
g#-----------------------------------------|
e--7-7-7-7-7-7-7-7-10-10-10-10-10-10-10-10-|
b--7-7-7-7-7-7-7-7-10-10-10-10-10-10-10-10-|
f#-5-5-5-5-5-5-5-5--8--8--8--8--8--8--8--8-|
b------------------------------------------|

   end                            into jars
c#-----------------------------------------|
g#-----------------------------------------|
e------------------------------------------|
b--10-10-10-10-10-10-10-10-8-8-8-8-8-8-8-8-|
f#-10-10-10-10-10-10-10-10-8-8-8-8-8-8-8-8-|
b--10-10-10-10-10-10-10-10-8-8-8-8-8-8-8-8-|

outro

c#------------------------------------------------------------------------------------------|
g#------------------------------------------------------------------------------------------|
e-------------------------------------------------------------------------------------------|
b-------------------------------------------------------------------------------------------|
f#-0^12^15^12-0^12^15^12-0^12^15^12-0^12^15^12-0^12^15^12-0^12^15^12-0^12^15^12-0^12^15^12\-|
b--0^12^15^12-0^12^15^12-0^12^15^12-0^12^15^12-0^12^15^12-0^12^15^12-0^12^15^12-0^12^15^12\-|

 end with a pick scrape

legend
/ slide
] bar
^ hammer on or pull off
~ vibrato
Tap to rate this tab
# A B C D E F G H I J K L M N O P Q R S T U V W X Y Z