Song name
# A B C D E F G H I J K L M N O P Q R S T U V W X Y Z

Chevelle - Humanoid tab

Chevelle - Humanoid
#7 off of 'Vena Sera'

Tuning (low to high) Bb F Bb Eb G C

There are other great tabs but no one had the bridge entirely right, so here it is.  
I've been listening to this song for years and have really nailed down the details that 
have been overlooked.  I'm oh-so-close to calling this tab 100% correct!

INTRO - Part 1
3x
C |-------------------------|
G |-------------------------|
Eb|-------------------------|
Bb|-------7-------7---7-7-7-|
F |-------0-------0---0-0-0-|
Bb|-5-5-5---5-5-5---5-------|
    . . .   . . .   .
1x
C |-----------------|
G |-----------------|
Eb|-----------------|
Bb|-------7---------|
F |-------0---------|
Bb|-5-5-5---5-5-5-5-|
    . . .   . . . .

INTRO - Part 2
C |------------------------|------------------------------------------------|
G |----------x2------------|------------------------------------------------|
Eb|------------------------|------------------------------------------------|
Bb|------------------------|------------------------------------------------|
F |------------------------|-------------------------8-----------3-----6----|
Bb|-5-0-3-5-0-3-5-0-5-8-0-3|-5-0-3-5-0-3-5-0-5-8-0-0-8-8-8-8-8-8-3-3-3-6-6-6|
                                                 . .   . . . . .   . .   . .
VERSE - 2x
C |-------------------------------------------------|
G |-------------------------------------------------|
Eb|-------------------------------------------------|
Bb|-------7---7-------7---7-------7p5---------------|
F |-5-5-5-5---5-5-5-5-5-5-5-5-5-5-----5-------------|
Bb|-5-5-5---5---5-5-5---5---5-5-5-------7-7-7-8-8-8-|
    . . .   .   . . .   .   . . .

C |-------------------------------------------------|
G |-------------------------------------------------|
Eb|-------------------------------------------------|
Bb|-------7---7-------7---7-------7p5---------------|
F |-5-5-5-5-5-5-5-5-5-5-5-5-5-5-5-----5-------------|
Bb|-5-5-5---5---5-5-5---5---5-5-5-------7-7-7-8-7-6-|
    . . .   .   . . .   .   . . .

PRECHORUS
C |--------------------------|
G |--------------------------|
Eb|--------------------------|
Bb|--------------------------|
F |-8-----------3-----6------|
Bb|-8-8-8-8-8-8-3-3-3-6-6-6--|
      . . . . .   . .   . .

CHORUS - 2x
C |------------------------------------------------------------------|
G |------------------------------------------------------------------|
Eb|------------------------------------------------------------------|
Bb|-5/77777777777-7/1010101010101010101010---------------------------|
F |-3/55555555555-5/8-8-8-8-8-8-8-8-8-8-8--888888888888-777777777777-|
Bb|----------------------------------------888888888888-777777777777-|

INTRO - Part 2
VERSE - 2x
CHORUS

BRIDGE - Part 1
C |--------------|----------------------------------------------|
G |---------(4x)-|----------------------------------------------|
Eb|--------------|--------7-7-7-8-8-8-8-8-8-5-5-5-5-5-5---------|
Bb|--------------|--5-5-5---------------------------------------|
F |-------5------|--------------------------------------5-5-5-5-|
Bb|-5-555---7-8--|--------------------------------------5-5-5-5-|
    . ...   . .                                         . . . .

BRIDGE - Part 2
1x
C |---------------------------------------------------|
G |---------------------------------------------------|
Eb|---------------------------------------------------|
Bb|---------------9-9--------------------1010---------|
F |-7-7-7-7-x-x-x-7-7-7-9-10-8-8-8-x-x-x-8-8--8-10-11-|
Bb|-7-7-7-7-x-x-x-----7-9-10-8-8-8-x-x-x------8-10-11-|

1x                                          ?
C |-----------------------------------------0----|
G |-----------------------------------------0----|
Eb|----------------------------------------------|
Bb|---------------9-9----------------------------|
F |-7-7-7-7-x-x-x-7-7-7-9-10-8-8-8-x-x-x-x-------|
Bb|-7-7-7-7-x-x-x-----7-9-10-8-8-8-x-x-x-x-------|

2x
C |---------------------------------------------------|
G |---------------------------------------------------|
Eb|---------------------------------------------------|
Bb|---------------9-9--------------------1010---------|
F |-7-7-7-7-x-x-x-7-7-7-9-10-8-8-8-x-x-x-8-8--8-10-11-|
Bb|-7-7-7-7-x-x-x-----7-9-10-8-8-8-x-x-x------8-10-11-|

BRIDGE - Part 3
2x
C |-----------------------------|
G |-----------------------------|
Eb|-----------------------------|
Bb|-----------------------------|
F |-------7-------------8-------|
Bb|-7-777---9-10--8-888---10-11-|
    . ...   . .   . ...   .  .

C |-----------------------------|
G |-----------------------------|
Eb|-----------------------------|
Bb|-----------------------------|
F |-------7---------------------|
Bb|-7-777---9-10--8-8-8--8-8-8--|
    . ...   . .   . . .

2x
C |-----------------------------|
G |-----------------------------|
Eb|-----------------------------|
Bb|-----------------------------|
F |-------5------------6--------|
Bb|-5-555---7-8--6-666---8-9----|
    . ...   . .  . ...   . .

BRIDGE - Part 4
C |--------------------------------------------------------------|
G |-------------------------------------------------------0~~~~~~|
Eb|--------------------------------------------------------------|
Bb|--------------------------------------------------------------|
F |-5-3-5-8-3-6-5-3-5-6-5-3--------------------------------------|
Bb|-5-3-5-8-3-6-5-3-5-6-5-3-55-33-55-88-33-66-55-33-55-6---------|
    . . . . . . . . . . . . .. .. .. .. .. .. .. .. .. .

CHORUS - 2x

OUTRO
C |-----------------------|-------------------------------------------------|
G |----------x2-----------|-------------------------------------------------|
Eb|-----------------------|-------------------------------------------------|
Bb|-----------------------|-------------------------------------------------|
F |-----------------------|------------------------8-----------3-----6-----0|
Bb|5-0-3-5-0-3-5-0-5-8-0-3|5-0-3-5-0-3-5-0-5-8-0-0-8-8-8-8-8-8-3-3-3-6-6-6-0|
                                                     . . . . .   . .   . .
Tap to rate this tab
# A B C D E F G H I J K L M N O P Q R S T U V W X Y Z