Song name
# A B C D E F G H I J K L M N O P Q R S T U V W X Y Z

Chevelle - Skeptic tab

This is a great tune Chevelles an awsome band but if u got any problems
w/ the tab email me at guitarkid13@sbcglobal.net enjoy


Drop D tunning 
intro
e-------------------------------|-----------------------------------|
b-------------------------------|----0--2--0--2---0--2--0-3^0-3~----|
g-------------------------------|----0--2--0--2---0--2--0-3^0-3~----|
d-0---------0------------3-0----|-0---------------------------------|
a-0---------0------------3-0----|-0---------------------------------|
d-0---------0------------3-0----|-0---------------------------------|

e-------------------------------|-----------------------------------|
b---0--2--0--2--3^0-------------|---0--2--0--2---0--2--0-3^0-3~-----|
g---0--2--0--2--3^0-------------|---0--2--0--2---0--2--0-3^0-3~-----|
d-0--------------------0-0-3----|-0---------------------------------|
a-0--------------------0-0-3----|-0---------------------------------|
d-0--------------------0-0-3----|-0---------------------------------|

e-------------------------------|-----------------------------------|
b---0--2--0--2--3^0-------------|---0--2--0--2---0--2--0-3^0-3~-----|
g---0--2--0--2--3^0-------------|---0--2--0--2---0--2--0-3^0-3~-----|
d-0-----------------3-0-0-3-3---|-0---------------------------------|
a-0-----------------3-0-0-3-3---|-0---------------------------------|
d-0-----------------3-0-0-3-3---|-0---------------------------------|

e-------------------------------|
b---0--2--0--2--3^0-------------|
g---0--2--0--2--3^0-------------|
d-0-------------------3-3-0-----|
a-0-------------------3-3-0-----|
d-0-------------------3-3-0-----|


verse
e------------------------------|--------------------------|palm mute
b-2-3-2---------s--------------|---0-2--0-2---0-2-0-------|the chords might
g-2-3-2---------t--------------|--------------------------|not be rite
d-0-0-0---------u--------------|--------------------------|but it is close
a---------------r--------------|--------------------------|
d---------------m--------------|-0--------------------3~--|

chorus
d--2/3--3-3-2-3-3-3------3-3-2-2-2^3-3-3-------|x2 second time end w/ 0 
a--2/3--3-3-2-3-3-3------3-3-2-2-2^3-3-3-------|                      0
d--2/3--3-3-2-3-3-3------3-3-2-2-2^3-3-3-------|                      0

introx2
verse
intro 
chorus
Tap to rate this tab
# A B C D E F G H I J K L M N O P Q R S T U V W X Y Z