Song name
# A B C D E F G H I J K L M N O P Q R S T U V W X Y Z

Chevelle - Dos tab

Band- Chevelle
Song- Dos
Tuning- Drop D

INTRO/VERSE 1 (clean, no distortion)
E|-----------|
B|-----------|
G|-----------| just strum these chords
D|-0-----0---|  maybe 16 times each, i didn't count.
A|-1-----0---|   listen to the song, you'll hear it.
D|-0-----0---|


CHORUS
E|-----------------------------------------------------------
B|-----------------------------------------------------------
G|-----------------------------------------------------------
D|-5-5555x--xxx--3-3333x--xxx--8-8888x--xxx--7-7777x--xxx----
A|-5-5555x--xxx--3-3333x--xxx--8-8888x--xxx--7-7777x--xxx----
D|-5-5555x--xxx--3-3333x--xxx--8-8888x--xxx--7-7777x--xxx----
        "you two..."

  -----------------------------------------------------------|
  -----------------------------------------------------------|
  -----------------------------------------------------------|
  -5-5555x--xxx--0-0000x--xxx--3-3333x--xxx--7-7777x--xxx----|
  -5-5555x--xxx--0-0000x--xxx--3-3333x--xxx--7-7777x--xxx----|
  -5-5555x--xxx--0-0000x--xxx--3-3333x--xxx--7-7777x--xxx----|


VERSE 2
E|-----------------|
B|-----------------|
G|-----------------|
D|-5-3-8-7-5-0-3-7-|
A|-5-3-8-7-5-0-3-7-|
D|-5-3-8-7-5-0-3-7-|
--strum these chords, listen to the cd for timing.


CHORUS (2x)
--kick in distortion now!!
CHORUS (repeat lots of times)


OUTRO (heavy distortion, kick each of these chords)
E|-------------|
B|-------------|
G|-------------|
D|-0-----0--0--|
A|-1-----0--0--|
D|-0-----0--0--|

ENJOY!!!!
Tap to rate this tab
# A B C D E F G H I J K L M N O P Q R S T U V W X Y Z