Song name
# A B C D E F G H I J K L M N O P Q R S T U V W X Y Z

Chevelle - Panic Prone tab

Help us improve GuitareTab! Take a short survey!
So this tab is WAY simple, should not have a problem, it is 99% accurate if not
 100% so enjoy. QUESTIONS??? email me: adio_slave21@hotmail.com

TUNING: Standard, but in dropped down into D

/  slide up
\  slide down
h  hammer-on

Verse:

d|----------------------------------------------------------------------|
A|----------------------------------------------------------------------|
F|----------------------------------------------------------------------|
C|----------------------------------------------------------------------| x4
G|--3-3-3-3-3-3-3-3-3-3-3-3-3-3-3-3-3-3-3-3-3-3-3-3---------------------|
D|-5-5-5-5-5-5-1-1---1-1---5-5-5-5-5-5-1-1---1-1------------------------|

Chorus:

d|----------------------------------------------------------------------|
A|----------------------------------------------------------------------|
F|----------------------------------------------------------------------|
C|---------7-7-7-5-3-3-3-3-5-5-5-5/6------------------------------------|
G|-3-3-3-3-7-7-7-5-3-3-3-3-5-5-5-5/6------------------------------------|
D|-3-3-3-3-5-5-5-3-1-1-1-1-3-3-3-3/4------------------------------------|

Breakdown:

d|------7-------7-------------------------------------------------------|
A|----------------------------------------------------------------------|
F|----------------------------------------------------------------------|
C|-5/7-7-7-7-5/7-7-7-7-2/3-3-3-3-2/3-3-3-3------------------------------| x4
G|-5/7-7-7-7-5/7-7-7-7-2/3-3-3-3-2/3-3-3-3------------------------------|
D|-3/5-5-5-5-3/5-5-5-5-0/1-1-1-1-0/1-1-1-1------------------------------|

2nd Chorus:

D|----------------------------------------------------------------------|
A|----------------------------------------------------------------------|
F|----------------------------------------------------------------------|
C|---------7-7-7-5-3-3-3-3-5-7-7-5---------7-7-7-5-3-3-3-3-5-5-5-5/6----|
G|-3-3-3-3-7-7-7-5-3-3-3-3-5-7-7-5-3-3-3-3-7-7-7-5-3-3-3-3-5-5-5-5/6----|
D|-3-3-3-3-5-5-5-3-1-1-1-1-3-5-5-3-3-3-3-3-5-5-5-3-1-1-1-1-3-3-3-3/4----|

Heres the Order:
Verse x4
2nd Chorus
Verse x4
Chorus x2
Breakdown
2nd Chorus x2
Verse x4
Related for Panic Prone tab