Song name
# A B C D E F G H I J K L M N O P Q R S T U V W X Y Z

Chevelle - Tug-o-war tab

I was getting tired of waiting so i tried doing it myself. this is only
my second song so feel free to let me know if it sux

Tuning: B F# B E G# C#

Riff 1( these are 11's and lightly palm mute)
|-------------------------------------------------------------------|
|-------------------------------------------------------------------|
|-------------------------------------------------------------------|
|-------------------------------------------------------------------|
|-------------------------------------------------------------------|
|-11111111-15-14--1111111111-15-14--1111111111-15-14--1111111111-10-|

Riff 2(lightly palm mute)
|-------------------------------------------------------------------|
|-------------------------------------------------------------------|
|-------------------------------------------------------------------|
|-------------------------------------------------------------------|
|-------------------------------------------------------------------|
|-11111111-12-11--1111111111-12-11--1111111111-12-11--1111111111-9--|

Riff 3(distorted)
|-------------------------------------------------------------------|
|-------------------------------------------------------------------|
|-------------------------------------------------------------------|
|-11-11-15-14--11-11-11-15-14--11-11-11-15-14--11-11-11-10----------|
|-11-11-15-14--11-11-11-15-14--11-11-11-15-14--11-11-11-10----------|
|-11-11-15-14--11-11-11-15-14--11-11-11-15-14--11-11-11-10----------|

Riff 4(distorted)
|-------------------------------------------------------------------|
|-------------------------------------------------------------------|
|-------------------------------------------------------------------|
|-11-11-12-11--11-11-11-12-11--11-11-11-12-11--9-9-9-9-2-2-2-2------|
|-11-11-12-11--11-11-11-12-11--11-11-11-12-11--9-9-9-9-2-2-2-2------|
|-11-11-12-11--11-11-11-12-11--11-11-11-12-11--9-9-9-9-2-2-2-2------|      

Riff 5(distorted)
|-------------------------------------------------------------------|
|-------------------------------------------------------------------|
|-------------------------------------------------------------------|
|-11-11-12-11--11-11-11-12-11--11-11-11-12-11--11-11-11-9-----------|
|-11-11-12-11--11-11-11-12-11--11-11-11-12-11--11-11-11-9-----------|
|-11-11-12-11--11-11-11-12-11--11-11-11-12-11--11-11-11-9-----------|

Riff 6(distorted)
|-------------------------------------------------------------------|
|-------------------------------------------------------------------|
|-------------------------------------------------------------------|
|-11-11-12-11--11-11-11-12-11--11-11-11-12-11--11-11-11-7h9---------|
|-11-11-12-11--11-11-11-12-11--11-11-11-12-11--11-11-11-7h9---------|
|-11-11-12-11--11-11-11-12-11--11-11-11-12-11--11-11-11-7h9---------|

Riff 7(lightly Palm Mute)(check strumming)(about x32 and x16) 
|-------------------------------------------------------------------|
|-------------------------------------------------------------------|
|-------------------------------------------------------------------|
|-------------------------------------------------------------------|
|-------------------------------------------------------------------|       
|--11(x32)-12(x16)-11(x32)------------------------------------------|

Riff 8(distorted)
|-------------------------------------------------------------------|
|-------------------------------------------------------------------|
|-------------------------------------------------------------------|
|-12--7--7--6----2----6----2----------------------------------------|
|-12--7--7--6----2----6----2----------------------------------------|
|-12--7--7--6----2----6----2----------------------------------------|

Riff 9(lightly palm mute)
|-------------------------------------------------------------------|
|-------------------------------------------------------------------|
|-------------------------------------------------------------------|
|-------------------------------------------------------------------|
|-------------------------------------------------------------------|
|-11111111-15-14---11111111-15-14-----------------------------------|

Riff 10(distorted w/ some effects)
|-------------------------------------------------------------------|
|-------------------------------------------------------------------|
|-4-4-4-4-4-4-4-4---------------------------------------------------|
|-x-x-x-x-x-x-x-x-2-2-2-2-2-2-2-2-----------------------------------|
|-2-2-2-2-2-2-2-2-2-2-2-2-2-2-2-2-----------------------------------|
|-----------------2-2-2-2-2-2-2-2-----------------------------------|

Riff 11(solo)(11'S &12'2
|-------------------------------------------------------------------|
|-------------------------------------------------------------------|
|-------------------------------------------------------------------|
|-111111111011111111101111111112121212------------------------------|
|-------------------------------------------------------------------|
|-------------------------------------------------------------------|


Order:
Riff 1
Riff 2
Riff 1
Riff 2
Riff 3
Riff 4
Riff 1
Riff 2
Riff 1
Riff 2
Riff 3
Riff 5
Riff 3
Riff 6
Riff 7
Riff 8
Riff 9
Riff 3
Riff 4
Riff 1
Riff 2
Riff 1
Riff 2
Riff 3
Riff 5
Riff 3
Riff 6
Riff 7
Riff 8
Riff 10 (x4)
2nd part of Riff 8 (x4)
Guitar 1 -Riff 10      Guitar 2 1st part of Riff 8

I might be trying some other Chevelle song if this gets 4 or 5 stars
Tap to rate this tab
# A B C D E F G H I J K L M N O P Q R S T U V W X Y Z