Song name
# A B C D E F G H I J K L M N O P Q R S T U V W X Y Z

Chevelle - Until Your Reformed tab

Why the heck do the other tabs have the octaves so high?!!! >_<"
anyway this is how you play the song :)


Intro x4 (Natural Harmonics)
|-------------|
|-------------|
|-------------|
|----------4*-|
|-------4*----|
|--5*-4*------|


Verse x4
|----------------------------------------------------------|
|----------------------------------------------------------|
|----------------------------------------------------------|
|2-2--22-2-2-22-4-4-44-4-4-44-6-6-66-6-6-66-6-6-66-6-6-66--|
|----------------------------------------------------------|
|----------------------------------------------------------|
 . .  .. . . .. . . .. . . .. . . .. . . .. . . .. . . ..

Chorus Riff 1 x4 (Strikes can be used as well instead of palm mutes)
|---------------------|
|---------------------|
|8-8--8-8--8-8--43-3--|
|x-x--x-x--x-x--xx-x--|
|6-6--6-6--6-6--21-1--|
|---00---00---00------|
    ..   ..   ..

Chorus Riff 2 x1
|---------------------------------|
|---------------------------------|
|--------8-8-8-3-3-3-6-6-6-X-4~---|
|--0-0-0-x-x-x-x-x-x-x-x-x-X-4~---|
|--0-0-0-6-6-6-1-1-1-4-4-4-X-2~---|
|--0-0-0--------------------------|
   . . .

Chorus Riff 3 x4
|-------------|---------|
|-------------|---------|
|-------------|---------|
|----------4*-|-0-0-4---|
|-------4*----|-0-0-2---|
|--5*-4*------|-0-0-2---|
                . .
(Verse)

(Chorus Riffs 1&2)


Chorus 2 Riff 2:
|--------------------------------------|
|-----------------------------------2~-|
|--------8-8-8-3-3-3-6-6-6-X-4~--4~----|
|--0-0-0-x-x-x-x-x-x-x-x-x-X-4~--------|
|--0-0-0-6-6-6-1-1-1-4-4-4-X-2~--------|
|--0-0-0-------------------------------|
   . . .
(Chorus Riff 3)

Bridge x4
|---------------------------------|
|---------------------------------|
|9-9-9-9-8-8-8-8-8-8-8-8-8-8-8-8--|
|x-x-x-x-x-x-x-x-x-x-x-x-x-x-x-x--|
|7-7-7-7-6-6-6-6-6-6-6-6-6-6-6-6--|
|---------------------------------|

(Chorus 1 Riff 1)x4

Breakdown x2
|-----------------------------------------|
|-----------------------------------------|
|-111111111111111111111111111111111-9-8-9-|
|-x-xx-x-xx-x-xx-xx-x-xx-x-xx-x-xx--x-x-x-|
|-9-99-9-99-9-99-99-9-99-9-99-9-99--7-6-7-|
|-----------------------------------------|

(Chorus 1 Riff 1)x2

(Chorus 2 Riff 1)x1

THE END
Tap to rate this tab
# A B C D E F G H I J K L M N O P Q R S T U V W X Y Z