Song name
# A B C D E F G H I J K L M N O P Q R S T U V W X Y Z

Chevelle - Well Enough Alone tab

Help us improve GuitareTab! Take a short survey!
Song: Well Enough Alone
Artist: Chevelle
Album: Vena Sera
Tuning: Drop C (C G C F A D)

This is the Drop C version of the song. You can also play it in Drop D by moving all 
down 2 frets.

Key:
h=hammer on
p=pull off
.=palm mute
r=let ring
b=bend
/=slide up
\=slide down


Intro:
D|----|-------------|---|
A|----|-------------|---|
F|-99-|-9-999-------|-9-|
C|-99-|-9-999-(x15)-|-9-|
G|-77-|-7-777-------|-7-|
C|----|-------------|---|

Verse: (x4)
D|---------------------|
A|---------------------|
F|---------------------|
C|---------------------|
G|---------7r----------|
C|-6r---7r----2r-------|

Pre Chorus:
D|--------------------------------------------------|
A|--------------------------------------------------|
F|--------------------------------------------------|
C|-------------------------444444444444666666666666-|
G|-666666666666777777777777222222222222444444444444-
C|-666666666666777777777777-------------------------
   ................................................
D|--------------------------------------------------|
A|--------------------------------------------------|
F|-------------------------------------666666666666-|
C|-------------444444444444666666666666666666666666-|
G|-777777777777222222222222444444444444444444444444-|
C|-777777777777-------------------------------------|
   ................................................

Chorus: (x2)
D|--------------------------------------------------|
A|--------------------------------------------------|
F|--------------------------------------------------|
C|2222222222222222222222222777777777777777777777777-|
G|2222222222222222222222222777777777777777777777777-|
C|2222222222222222222222222777777777777777777777777-|

2nd Intro:
D|----|------------|---|
A|----|------------|---|
F|-99-|-9-999------|-9-|
C|-99-|-9-999-(x8)-|-9-|
G|-77-|-7-777------|-7-|
C|----|------------|---|

[Verse x4]

[Pre Chorus]

[Chorus x2]

Bridge 1: (x2)
D|------------|------------|------------|--------------|
A|------------|------------|------------|--------------|
F|---------6--|---------8--|---------6--|--------------|
C|-66-6-6h7-7-|-66-6-6h7-7-|-66-6-6h7-7-|-9-6-11-9-7-4-|
G|-66-6-------|-66-6-------|-66-6-------|-9-6-11-9-7-4-|
C|-66-6-------|-66-6-------|-66-6-------|-9-6-11-9-7-4-|

Bridge 2: (x4)
D|--------------------|--------------------|--------------------------|
A|--------------------|--------------------|--------------------------|
F|--------------------|--------------------|--------------------------|
C|-6-66666-66h7p6-4/6-|-6-66666-66h7p6-4/6-|-66666-66h7p6-99999-44444-|
G|-6-66666-66h7p6-4/6-|-6-66666-66h7p7-4/6-|-66666-66h7p6-99999-44444-|
C|-6-66666-66h7p6-4/6-|-6-66666-66h7p6-4/6-|-66666-66h7p6-99999-44444-|

After 4th Bridge 2 play this:
D|----|
A|----|
F|----|
C|-2r-|
G|-2r-|
C|-2r-|

[Pre Chorus]

[Chorus x6]

After 6th Chorus play this:
D|------------------|
A|------------------|
F|---------------8r-|
C|-7-7-7-7-7-7---8r-|
G|-7-7-7-7-7-7---6r-|
C|-7-7-7-7-7-7------|


Well, that's it. That was my first tab so hope you like it!
Related for Well Enough Alone tab