Song name
# A B C D E F G H I J K L M N O P Q R S T U V W X Y Z

Chevelle - Paint The Seconds tab

A# f A# d# g c


intro/chorus (light distortion)
|------------------|         |-------------|
|------------------|         |-------------|
|-9----12-----7----|         |-5-----7-----|
|-7(x8)10(x5)-5(x5)|x3       |-3(x8)-5(x8)-|end the intro with this
|-7----10-----5----|         |-3-----5-----|
|-7----10-----5----|         |-3-----5-----|

verse

(light distortion)
|-----------------------------------|  |--------------------------| |---|
|-----------------------------------|  |--------------------------| |---|
|-----------------------------------|  |------9-7-7-------------  | |-5-|
|-----------------------------------|x4|------x-x-7-------------  | |-5-|
|-------77-55-00-333333-----------3-|  |------7-5-7-3(x6)--------3| |-5-|
|-777777----------------555555-xx---|  |-7(x6)-----------5(x6)xx--| |---|
  ........ .. .. ...... ......         .          .    .

Pre chorus (distortion)
|--------------------|-------------------------------------------------|
|--------------------|-------------------------------------------------|
|--------------------|-------------------------------------------------|
|-0h222222-3-2-------|-5555-0000---------------------------------------|
|-0h222222-3-2-------|-5555-0000---------------------------------------|
|-0h222222-3-2---(x3)|-5555-0000---------------------------------------|

chorus (distortion)

|------------------|         |-------------|
|------------------|         |-------------|
|-9----12-----7----|         |-5-----7-----|
|-7(x8)10(x5)-5(x5)|x3       |-3(x8)-5(x8)-|
|-7----10-----5----|         |-3-----5-----|
|-7----10-----5----|         |-3-----5-----|
verse (light distortion)
(light distortion)
|-----------------------------------|  |--------------------------| |---|
|-----------------------------------|  |--------------------------| |---|
|-----------------------------------|  |------9-7-7-------------  | |-5-|
|-----------------------------------|x4|------x-x-7-------------  | |-5-|
|-------77-55-00-333333-----------3-|  |------7-5-7-3(x6)--------3| |-5-|
|-777777----------------555555-xx---|  |-7(x6)-----------5(x6)xx--| |---|
  ........ .. .. ...... ......         .          .    .

Pre chorus (distortion)
|--------------------|-------------------------------------------------|
|--------------------|-------------------------------------------------|
|--------------------|-------------------------------------------------|
|-0h222222-3-2-------|-5555-0000---------------------------------------|
|-0h222222-3-2-------|-5555-0000---------------------------------------|
|-0h222222-3-2---(x3)|-5555-0000---------------------------------------|

chorus (distortion)

|------------------|         |-------------|
|------------------|         |-------------|
|-9----12-----7----|         |-5-----7-----|
|-7(x8)10(x5)-5(x5)|x3       |-3(x8)-5(x8)-|
|-7----10-----5----|         |-3-----5-----|
|-7----10-----5----|         |-3-----5-----|
solo (the solo isn't all right. i did it by ear so bear with me)
(echoing effect)
|----------------------------------------------------------|
|-13-13-13-13----------15~~12h13-13-13-13------------------|
|-------------16-14-----------------------16-14------------|
|-------------------14--------------------------14-13------|
|----------------------------------------------------15-14-|
|----------------------------------------------------------|
(distortion)
|-12----12----12-------------------------------------------------------|
|---13----13-----------------------------------------------------------|
|-----12----12---12-15-14~~--------------------------------------------|
|---------------------------14-17-17p15p14-15p14p12-14p12p10-12p10p9-7-|
|----------------------------------------------------------------------|
|----------------------------------------------------------------------|

(distortion)
|-12----12----12-13-12121212121212121212-1515151515151515151515~~-----|
|---13----13----------------------------------------------------------|
|-----12----12--------------------------------------------------------|
|---------------------------------------------------------------------|
|---------------------------------------------------------------------|
|---------------------------------------------------------------------|
chorus(x6)(start clean then distortion)

|------------------|         |-------------|
|------------------|         |-------------|
|-9----12-----7----|         |-5-----7-----|
|-7(x8)10(x5)-5(x5)|x3       |-3(x8)-5(x8)-|
|-7----10-----5----|         |-3-----5-----|
|-7----10-----5----|         |-3-----5-----|

outro

|-----------------------------------------------|
|-----------------------------------------------|
|-----------------------------------------------|
|-----------------------------------------------|
|---7-5-0-3-----7-5-0-3-----7-5-0-3-------------|
|-7---------5-7---------5-7---------5-3-5-7~~---|
Tap to rate this tab
 
# A B C D E F G H I J K L M N O P Q R S T U V W X Y Z