Song name
# A B C D E F G H I J K L M N O P Q R S T U V W X Y Z

Chevelle - Braniac tab

Help us improve GuitareTab! Take a short survey!
-------------------------------------------------------------------------------
			     BRANIAC - Chevelle
-------------------------------------------------------------------------------

Tuning: Drop B 

Intro
C#|-------------------|----------------|
G#|-------------------|----------------|
E |-------------------|----------------|
B |-12----8/7---5-----|-8-7------------|
F#|-12----8/7---5-----|-8-7------------|
B |-12----8/7---5-----|-8-7------------|

Verse

Bass for the first part of verse.

Then :

C#|-------------------|------------------|
G#|-------------------|------------------|
E |-------------------|-6-6-6-6-6-6-6-12-|
B |-12----8/7---5-----|-6-6-6-6-6-6-6-12-|
F#|-12----8/7---5-----|-6-6-6-6-6-6-6-12-|
B |-12----8/7---5-----|------------------|

Chorus
C#|--------------------------------------|
G#|--------------------------------------|
E |----------------------------------10--|
B |-12-12-12-10-0-12---9--9--9---0---10--|
F#|-12-12-12-10-0-12---9--9--9---0----8--|
B |-12-12-12-10-0-12---9--9--9---0-------|

Interlude 
C#|----------------------------------------------------------------|
G#|----------------------------------------------------------------|
E |----------------------------------------------------------------|
B |-13-12--8-7--3-0--8-7---7-7-7-7--12-12-12-12-10-10-10-10-8-8-8-8|
F#|-13-12--8-7--3-0--8-7---7-7-7-7--12-12-12-12-10-10-10-10-8-8-8-8|
B |-13-12--8-7--3-0--8-7---7-7-7-7--12-12-12-12-10-10-10-10-8-8-8-8|

C#|--------------------------------------------------------------------|
G#|--------------------------------------------------------------------|
E |--------------------------------------------------------------------|
B |-13-12--8-7--3-0--8-7---7-7-7-7--12-12-12-12-10-10-10-10--9-9-11-9\-|
F#|-13-12--8-7--3-0--8-7---7-7-7-7--12-12-12-12-10-10-10-10------------|
B |-13-12--8-7--3-0--8-7---7-7-7-7--12-12-12-12-10-10-10-10------------|

Chorus x2

Intro  x3

Outro
C#|----------------------------------|
G#|----------------------------------|
E |----------------------------------|  palm mute are on the 7.
B |-13-12--8-7--3-0--8-7---x-x-x-x---|
F#|-13-12--8-7--3-0--8-7---x-x-x-x---|
B |-13-12--8-7--3-0--8-7---x-x-x-x---|
			

C#|----------------------------------|
G#|----------------------------------|
E |----------------------------------|
B |-13-12--8-7--3-0--8-7-x-7~~-------|
F#|-13-12--8-7--3-0--8-7-x-7~~-------|
B |-13-12--8-7--3-0--8-7-x-7~~-------|

Related for Braniac tab