Guitaretab - guitar tabs
Song name
# A B C D E F G H I J K L M N O P Q R S T U V W X Y Z

Cheyenne Kimball - Hanging On tab

********** Capo First Fret **************
Intro
|------------------------------------|
|------------------------------------|
|---4---4----1--1-1---1---1-2-2-2---1|x2
|---4---4----2--2-2---2---2-2-2-2---2|
|---2---2----2--2-2---2---2-0-0-0---2|
|------------------------------------|

Verse 1
|---------------------------------------------|
|---------------------------------------------|
|---4---4----1--1-1---1---1-2-2-2---1--1--1--1|
|---4---4----2--2-2---2---2-2-2-2---2--2--2--2|
|---2---2----2--2-2---2---2-0-0-0---2--2--2--2|
|---------------------------------------------|
Iíve had a bad day
And nothing ever seems to go my way
Iíve got a heartache
donít wanna think about it
And every time I try to smile I cry so
Iíll just hide my face
Get out of my way
donít wanna talk about it

Pre-chorus
|---------0-----0------|
|---------0-----0------|
|---------1-----2------|
|---4-x8--2-x4--2-x4---|
|---4-----2-----0------|
|---2------------------|
And Iíll be fine
I just need some time

Chorus
|-------0---0---0---0---0---0---0---|
|-------0---0---0---0---0---0---0---|
|-------2---1---4---6---2---1---4---|
|---4---2---2---4---6---2---2---4---|
|---4---0---2---2---4---0---2---2---|
|---2-------------------------------|
Iím hanging on today
and nothingís gonna stop me anyway
Iím holding on cause Iím strong
and Iím the only one that can make a change
|-------0---0---0-------0~------------|
|-------0---0---0-------0~------------|
|-------2---1---4-------2~------------|
|---4---2---2---4---4---2~------------|
|---4---0---2---2---4---0~------------|
|---2---------------2-----------------|
And I donít wanna fight
I gotta live my life
Iím gonna make it alright
Iím hanging on
And nothingís gonna stop me...

FILL
|---------------------------------------------|
|---------------------------------------------|
|---4---4----1--1-1---1---1-2-2-2---1--1--1--1|
|---4---4----2--2-2---2---2-2-2-2---2--2--2--2|
|---2---2----2--2-2---2---2-0-0-0---2--2--2--2|
|---------------------------------------------|
...anyway
[ Tab from: http://www.guitaretab.com/c/cheyenne-kimball/74531.html ]
VERSE 2
|---------------------------------------------|
|---------------------------------------------|
|---4---4----1--1-1---1---1-2-2-2---1--1--1--1|
|---4---4----2--2-2---2---2-2-2-2---2--2--2--2|
|---2---2----2--2-2---2---2-0-0-0---2--2--2--2|
|---------------------------------------------|
I went the wrong way
But Iím not lost itís a good mistake
I saw the day break
Iím gonna shout about it
Oh, and every time I turn around I find that
Iím alone again
Iíve had a bad day
Iím gonna laugh about it

PRE-CHORUS
And Iíll be fine
Iím gonna be alright

CHORUS

BRIDGE
|-------------------------------------|
|-------------------------------------|
|-------------------------------------|
|---7777-666-7777-666-7777-666--7777--|
|---7777-666-7777-666-7777-666--7777--|
|---5555-444-5555-444-5555-444--5555--|
And nothingís gonna stop me
(cheyenne's guitaris plays this)
|---0-----0-------0-----0-------|
|-----4-----4---2---2-0---0-----|
|-------4-----4-------------4---|x2
|-------------------------------|
|-------------------------------|
|-------------------------------|
When I get lonely I feel like Iím floating
Nothing is real Iím above it all
|--------------------------------------------------|
|--------------------------------------------------|
|--------------------------------------------------|
|---7777-666-7777-666-7777-666--5555555555555555---|
|---7777-666-7777-666-7777-666--5555555555555555---|
|---5555-444-5555-444-5555-444--7777777777777777---|
Iím above it
I'm above it all

CHORUS

ENDING
|---------------------------------------------|
|---------------------------------------------|
|---4---4----1--1-1---1---1-2-2-2---1--1--1--1|
|---4---4----2--2-2---2---2-2-2-2---2--2--2--2|
|---2---2----2--2-2---2---2-0-0-0---2--2--2--2|
|---------------------------------------------|
Iíve had a bad day


********* I took the original tab and made some changes to it. So credit to her. I'm 
sure this is accurate i did a whole bunch of research and i saw cheyenne live so yeah. Oh 
i'm 12 so don't be harsh and i just thought myself how to this so yeah. *********************
Related for Hanging On tab