Song name
# A B C D E F G H I J K L M N O P Q R S T U V W X Y Z

Cheyenne Kimball - Day Has Come tab

Help us improve GuitareTab! Take a short survey!
This tab makes it super easy to play both the acoustic guitar(cheyenne)
and the electric guitar(ethan), but you will need a distortion pedal
to switch over from clean to distortion quickly.


( ) = Lightly Touching Strings W/O Pressing Down
 ~  = Let Ring

{INTRO} -Clean-
E--------|-------------------------------------|
B--------|-------------------------------------|
G--(4)---|-4/6-6--64/6-666---4/6-6--64/6-666---|
D--(4)x8-|-4/6-6--64/6-666---4/6-6--64/6-666---| x2
A--(2)---|-2/4-4--42/4-444---2/4-4--42/4-444---|
E--------|-------------------------------------|

{VERSE 1} -Clean-
E----------------------------------------------------------------------|
B----------------------------------------------------------------------|
G--4/6-6--64/6-666---4/6-6--64/6-666\9---9/4-4-44-444------------------|
D--4/6-6--64/6-666---4/6-6--64/6-666\9---9/4-4-44-444---9/7-7-77-777---|
A--2/4-4--42/4-444---2/4-4--42/4-444\7---7/2-2-22-222---9/7-7-77-777---|
E-------------------------------------------------------7/5-5-55-555---|

E--------------------------------------------------------------------|
B--------------------------------------------------------------------|
G--4/6-6--64/6-666---4/6-6--64/6-666\9---9/4-4-44-444----------------|
D--4/6-6--64/6-666---4/6-6--64/6-666\9---9/4-4-44-444---9/7-777777---|
A--2/4-4--42/4-444---2/4-4--42/4-444\7---7/2-2-22-222---9/7-755555---|
E-------------------------------------------------------7/5-555555---|

{PRE-CHORUS} -Distortion-
E----------------------------------------|
B----------------------------------------|
G--9~~~~~~~----------6~~~~~~~------------|
D--9~~~~~~~-9~~~~~~~-6~~~~~~~-7~~~~~~~---|
A--7~~~~~~~-9~~~~~~~-4~~~~~~~-7~~~~~~~---|
E-----------7~~~~~~~----------5~~~~~~~---|

{CHORUS} -Distortion-
E----------------------------------------|
B----------------------------------------|
G----------99--66------------9999-6666---|
D--77--99--99--66--7777-9999-9999-6666---|
A--77--99--77--44--7777-9999-7777-4444---|
E--55--77----------5555-7777-------------|

E----------------------------------------|
B----------------------------------------|
G----------99--66------------------------|
D--77--99--99--66--77777777-66666666-----|
A--77--99--77--44--77777777-66666666-----|
E--55--77----------55555555-44444444-----|

{FILL} -Distortion-
E--------------------------------------|
B--------------------------------------|
G--4/6-6--64/6-666---4/6-6--64/6-666---|
D--4/6-6--64/6-666---4/6-6--64/6-666---|
A--2/4-4--42/4-444---2/4-4--42/4-444---|
E--------------------------------------|

{VERSE 2} -Clean- or -Light Distortion-
E----------------------------------------------------------------------|
B----------------------------------------------------------------------|
G--4/6-6--64/6-666---4/6-6--64/6-666\9---9/4-4-44-444------------------|
D--4/6-6--64/6-666---4/6-6--64/6-666\9---9/4-4-44-444---9/7-7-77-777---|
A--2/4-4--42/4-444---2/4-4--42/4-444\7---7/2-2-22-222---9/7-7-77-777---|
E-------------------------------------------------------7/5-5-55-555---|

E--------------------------------------------------------------------|
B--------------------------------------------------------------------|
G--4/6-6--64/6-666---4/6-6--64/6-666\9---9/4-4-44-444----------------|
D--4/6-6--64/6-666---4/6-6--64/6-666\9---9/4-4-44-444---9/7-777777---|
A--2/4-4--42/4-444---2/4-4--42/4-444\7---7/2-2-22-222---9/7-777777---|
E-------------------------------------------------------7/5-555555---|

{PRE-CHORUS} -Distortion-
E----------------------------------------|
B----------------------------------------|
G--9~~~~~~~----------6~~~~~~~------------|
D--9~~~~~~~-9~~~~~~~-6~~~~~~~-7~~~~~~~---|
A--7~~~~~~~-9~~~~~~~-4~~~~~~~-7~~~~~~~---|
E-----------7~~~~~~~----------5~~~~~~~---|

{CHORUS} -Distortion-
E----------------------------------------|
B----------------------------------------|
G----------99--66------------9999-6666---|
D--77--99--99--66--7777-9999-9999-6666---|
A--77--99--77--44--7777-9999-7777-4444---|
E--55--77----------5555-7777-------------|

E----------------------------------------|
B----------------------------------------|
G----------99--66------------------------|
D--77--99--99--66--77777777-66666666-----|
A--77--99--77--44--77777777-66666666-----|
E--55--77----------55555555-44444444-----|

{FILL} -Distortion-
E--------------------------------------|
B--------------------------------------|
G--4/6-6--64/6-666---4/6-6--64/6-666---|
D--4/6-6--64/6-666---4/6-6--64/6-666---|
A--2/4-4--42/4-444---2/4-4--42/4-444---|
E--------------------------------------|

{BRIDGE} -Distortion-
E---------------------------------------------------------|
B---------------------------------------------------------|
G---------------------4/6-6--64/6-666---4/6-6--64/6-666---|
D--77777777-66666666--4/6-6--64/6-666---4/6-6--64/6-666---|
A--77777777-66666666--2/4-4--42/4-444---2/4-4--42/4-444---|
E--55555555-44444444--------------------------------------|

E---------------------------------------|
B---------------------------------------|
G--------------------6666666666666666---|
D--77777777-66666666-6666666666666666---|
A--77777777-66666666-4444444444444444---|
E--55555555-44444444---(SOLO RYTHM)-----|

{SOLO} -Distortion-
E-------------------------------------------------|
B-------------------------------------------------|
G--5--5-5-7-7-9-9--9--9-9-11-11-12-12--14--14-14--|
D-------------------------------------------------|
A-------------------------------------------------|
E-------------------------------------------------|

E------------------------------------------|
B------------------------------------------|
G-15-15-16-16--17--17-17-19-19-20-20-21~---|
D------------------------------------------|
A------------------------------------------|
E------------------------------------------|

{CHORUS} -Distortion-
E----------------------------------------|
B----------------------------------------|
G----------99--66------------9999-6666---|
D--77--99--99--66--7777-9999-9999-6666---|
A--77--99--77--44--7777-9999-7777-4444---|
E--55--77----------5555-7777-------------|

E----------------------------------------|
B----------------------------------------|
G----------99--66------------------------|
D--77--99--99--66--77777777-66666666-----|
A--77--99--77--44--77777777-66666666-----|
E--55--77----------55555555-44444444-----|

{OUTRO CHORUS} -Distortion-
E-----------------------------------------|
B-----------------------------------------|
G----------9999-6666----------9999-6666---|
D--77--99--9999-6666--77--99--9999-6666---|
A--77--99--7777-4444--77--99--7777-4444---|
E--55--77-------------55--77--------------|

E--------------------------------------|
B--------------------------------------|
G----------99--66----------------------|
D--77--99--99--66--77777777-66666666---|
A--77--99--77--44--77777777-66666666---|
E--55--77----------55555555-44444444---|

{OUTRO} -Distortion-
E-----------------------------|
B-----------------------------|
G--4/6-6--64/6-666---64/6-6---|
D--4/6-6--64/6-666---64/6-6---|
A--2/4-4--42/4-444---42/4-4---|
E-----------------------------|

If you find any mistakes or improvements to this tab, please feel free to
let me know at j_urdiales@hotmail.com
THANK YOU! P.S. HAPPY 16th CHEYENNE!
Related for Day Has Come tab