Guitaretab - guitar tabs
Song name
# A B C D E F G H I J K L M N O P Q R S T U V W X Y Z

Cheyenne Kimball - Mr Beautiful tab

-------------------------------------------------------------------------------
			     MR. BEAUTIFUL Ė Cheyenne Kimball
-------------------------------------------------------------------------------

Tabbed by: Mmhmm

** Youíll have to listen to the song to work out the strumming; what Iíve posted is just 
general idea. Since her album isnít out yet, you can listen to a live performance of 
song on Overdrive on mtv.com.

INTRO

e|---333------------33333333--------------------|
B|----------------------------------------------|
G|----------22222-------------------------------|  play 4x
D|---222----22222-------------------------------|
A|---333------------22222222--------------------|
E|------------------33333333--------------------|

VERSE 1

e|-----333---------------------------33333333---------------------------------|
B|----------------------------------------------------------------------------|
G|--------------------22222---------------------------------------------------|
D|-----222------------22222---------------------------------------------------|
A|-----333---------------------------22222222---------------------------------|
E|-----------------------------------33333333---------------------------------|

   I look at all the pictures, and I have to wonder why

e|-----333---------------------------33333333---------------------------------|
B|----------------------------------------------------------------------------|
G|--------------------22222---------------------------------------------------|
D|-----222------------22222---------------------------------------------------|
A|-----333---------------------------22222222---------------------------------|
E|-----------------------------------33333333---------------------------------|

       You are always smiling, while Iím about to cry

e|-----333---------------------------------33333333---------------------------|
B|----------------------------------------------------------------------------|
G|--------------------22222---------------------------------------------------|
D|-----222------------22222---------------------------------------------------|
A|-----333---------------------------------22222222---------------------------|
E|-----------------------------------------33333333---------------------------|

  Itís hard to see the mirror, when youíre blinded by the sun

e|-----22222222--------------------------------------------------------------|
B|-----33333333--------------------------------------------------------------|
G|-----22222222-------------------22222222-----------------------------------|
D|--------------------------------22222222-----------------------------------|
A|---------------------------------------------------------------------------|
E|---------------------------------------------------------------------------|

    And I canít say Iím sorry; I thought you were the one


CHORUS

e|-----------------33333333-----33333333-------------------------------------|
B|---------------------------------------------------------------------------|
G|---------------------------------------------------------------------------|
D|-----------------22222222--------------------------------------------------|
A|-----------------33333333-----22222222-------------------------------------|
E|------------------------------33333333-------------------------------------|

    I gotta keep leaving if Iím gonna get over you

e|---------------------------------333------------33333----------------------|
B|---------------------------------------------------------------------------|
G|---------------22222222----------------------------------------------------|
D|---------------22222222----------222---------------------------------------|
A|---------------------------------333------------22222----------------------|
E|------------------------------------------------33333----------------------|

    I gotta keep moving, Iíve done all that I can do
[ Tab from: http://www.guitaretab.com/c/cheyenne-kimball/75231.html ]
e|-----------33333333-------33333333-----------------------------------------|
B|---------------------------------------------------------------------------|
G|---------------------------------------------------------------------------|
D|-----------22222222--------------------------------------------------------|
A|-----------33333333-------22222222-----------------------------------------|
E|--------------------------33333333-----------------------------------------|

    I gotta believe it, and we both know the truth

e|------2--------------------------------------------------------------------|
B|------3-------------------2------------------------------------------------|
G|------2-------------------2------------------------------------------------|
D|--------------------------2------------------------------------------------|
A|---------------------------------------------------------------------------|
E|---------------------------------------------------------------------------|

    Goodbye Mr. Beautiful; someone I never knew

FILL

e|---333------------33333333--------------------|
B|----------------------------------------------|
G|----------22222-------------------------------|  play 2x
D|---222----22222-------------------------------|
A|---333------------22222222--------------------|
E|------------------33333333--------------------|

                    Goodbye Mr. Beautiful

VERSE 2

(same guitar as verse 1)

I think of all the moments wheni was so alone
You were there right next to me, but nobody was home
And Iím defined a prisoner insde your selfish world
There wasnít enough room for me and all your other girls

CHORUS

(same as the first time)

BRIDGE

e|------------333x------------------------------------|
B|------222------x------------------------------------|
G|------222------x------------------------------------|
D|------222---222x------------------------------------|
A|------------333x------------------------------------|
E|---------------x------------------------------------|

               Donít tell me you

e|------333--------------------------222x-------------|
B|-----------------------------------333x-------------|
G|-----------------------------------222x-------------|
D|--------------------------------------x-------------|
A|------222-----------------------------x-------------|
E|------333-----------------------------x-------------|

        Love me, you donít know what love is anyway

e|------------333x------------------------------------|
B|------222------x------------------------------------|
G|------222------x------------------------------------|
D|------222---222x------------------------------------|
A|------------333x------------------------------------|
E|---------------x------------------------------------|

              Iím saying its

e|------333---------------222x------------------------|
B|------------------------333x------------------------|
G|------------------------222x------------------------|
D|---------------------------x------------------------|
A|------222------------------x------------------------|
E|------333------------------x------------------------|

        Over, and I wanna do what I say
e|------------33333-----------------------------------|
B|------222-------------------------------------------|
G|------222-------------------------------------------|
D|------222---22222-----------------------------------|
A|------------33333-----------------------------------|
E|----------------------------------------------------|

              I gave you a

e|------333---------------22222-----------------------|
B|------------------------33333-----------------------|
G|------------------------22222-----------------------|
D|----------------------------------------------------|
A|------222-------------------------------------------|
E|------333-------------------------------------------|

        Million chances to make it right

e|-------------------------------------33333333---------------|
B|------------------------------------------------------------|
G|------22222222----------------------------------------------|
D|------22222222-----------------------22222222---------------|
A|-------------------------------------33333333---------------|
E|------------------------------------------------------------|

        Make it right, make it right, never gonna get it right


CHORUS (2x)


.. and thatís all there is to it! The strummings really easy to figure out if you listen 
it, and really hard to write so check out the song!
Related for Mr Beautiful tab