Guitaretab - guitar tabs
Song name
# A B C D E F G H I J K L M N O P Q R S T U V W X Y Z

Cheyenne Kimball - Breaking Your Heart tab

verse:
[ Tab from: http://www.guitaretab.com/c/cheyenne-kimball/83576.html ]
e|-----------------------------------------------------------------------|
B|-----------------------------------------------------------------------|
G|---8---8-----8---8-----6---6-----6---6---------------------------8---8-| x2
D|---8---8-----8---8-----6---6-----6---6-----6---6-----6---6-------8---8-|
A|-6---6-----6---6-----4---4-----4---4-------6---6-----6---6-----6---6---|
E|-----------------------------------------4---4-----4---4---------------|

pre-chorus:

e|-------------------|
B|-------------------|
G|-6-----------------|
D|-6--x16---6--------|
A|-4--------6--x16---|
E|----------4--------|

chorus:

e|--------------------------------|
B|--------------------------------|
G|-8-------6---------------8------|
D|-8--x8---6--x8---6-------8--x8--|
A|-6-------4-------6--x8---6------|
E|-----------------4--------------|
Related for Breaking Your Heart tab
Advertisement will be closed in 10 seconds