Song name
# A B C D E F G H I J K L M N O P Q R S T U V W X Y Z

Chi-lites - Oh Girl tab

-------------------------------------------------------------------------------
			     Oh Girl - Cut off your hands
-------------------------------------------------------------------------------
Tabbed by:Kevin Parra
Email:bandolero_darknight@yahoo.com

Tuning:

e|---------------------------------------------------------------------------|
B|----------------------------------------------------8-8-7-7----------------|
G|-------7-7-9-9-7---9pb--7-9-9-7-7------7-7-9-9-7-7----------9-9-7-7--------|
D|----9-9----------------------------9-9-------------------------------------|
A|---------------------------------------------------------------------------|
E|---------------------------------------------------------------------------|

e|------5-5-7-7-5---7pb-5-7-7-5-5-----5-5-7-7-5-5-7-7-5-5----5-5-------------|
B|--5-5---------------------------5-5---------------------5-5----------------|
G|---------------------------------------------------------------------------|
D|---------------------------------------------------------------------------|
A|---------------------------------------------------------------------------|
E|---------------------------------------------------------------------------|

Play that twice but the second time slow down on the last few notes




http://www.myspace.com/cutoffyourhands  
They are signed.They got videos n stuff
Tap to rate this tab
 
# A B C D E F G H I J K L M N O P Q R S T U V W X Y Z