Song name
# A B C D E F G H I J K L M N O P Q R S T U V W X Y Z

Chiba-ken - The Butterfly tab

Hey this is CHiba Ken's The Butterfly. Standard Tuning by bassplayer27

For the intro you can use a pedal for the effect or just pluck the strings
multiple times if you dont have the effect.

   Intro:
E---------------------------------------------------------------------|
B---------4-4-4-4---------4-4-4-4---------4-4-4-4---------4-4-4-4-----|
G---------------------------------------------------------------------|
D---------------------------------------------------------------------|
A-4-4-4-4---------2-2-2-2-------------------------2-2-2-2-------------|
E---------------------------------4-4-4-4-----------------------------|

E---|---|---|---|-----------------------------------------------------|
B---|---|---|---|-----------------------------------------------------|
G-6-|-2-|---|---|-----------------------------------------------------|
D-6-|-2-|-2-|---|-----------------------------------------------------|
A-4-|-0-|-2-|-6-|-----------------------------------------------------|
E---|---|-0-|-4-|-----------------------------------------------------|

  Verse:
E---------------------------------------------------------------------|
B---4-4-----4-54---4-4----4-54----------------------------------------|
G----4-4-----4--4---4-4----4--4---------------------------------------|
D-6-------4--------------4--------------------------------------------|
A-4-------2-------6------2--------------------------------------------|
E-----------------4---------------------------------------------------|

 Chorus: 2x
E---|---|---|---|---|---|---|---|------------------------------------|
B---|---|---|---|---|---|---|---|------------------------------------|
G-6-|-2-|---|-4-|-6-|-2-|---|---|------------------------------------|
D-6-|-2-|-2-|-4-|-6-|-2-|-2-|---|------------------------------------|
A-4-|-0-|-2-|-2-|-4-|-0-|-2-|-6-|------------------------------------|
E---|---|-0-|---|---|---|-0-|-4-|------------------------------------|

Back to verse:
Then Chorus 2x
Then Breakdown:

32x Palm Mute
E|-----|
B|-----|
G|-6---|
D|-6---|
A|-4---|
E|-----|

E|---|----|
B|---|----|
G|---|----|
D|---|----|
A|-6-|-7--|
E|-4-|-5--|

E|---|---|----|
B|---|---|----|
G|-6-|-8-|-9--|
D|-6-|-8-|-9--|
A|-4-|-6-|-7--|
E|---|---|----|

2x
E|-----|
B|-----|
G|-6---|
D|-6---|
A|-4---|
E|-----|

E|---|----|
B|---|----|
G|---|----|
D|---|----|
A|-6-|-7--|
E|-4-|-5--|

E-----------------|
B-----------------|
G-6--4-----4------|
D-6--4--6--4------|
A-4--2--6--2------|
E-------4---------|

Chorus 4x
Then 1 Verse to End it.

Thats it, and thats just how I play it acoustic not 100% but good enough to play
some chiba ken to!!!!

Band Page Link!!!!! http://www.chiba-ken.net/
Tap to rate this tab
 
# A B C D E F G H I J K L M N O P Q R S T U V W X Y Z