Song name
# A B C D E F G H I J K L M N O P Q R S T U V W X Y Z

Chicago - Hard To Say Im Sorry tab

Chicago - Hard To Say I'm Sorry

Tabbed by: Walter R.B

Email: nas_g4m3@hotmail.com

Tuning: Standard [EADGBe]

Key:

^ = bend
r = release bend
s = slide
p = pull-off
h = hammer-on
~ = vibrato

(3:02)
|---------------------------------------------------------------|
|---------------------------------------------------------------|
|-----------9s7~------------------------------------------------|
|-----5-7s9-----------------------------------------------------|
|-5h7-----------------------------------------------------------|
|---------------------------------------------------------------|

|--------5-5^9r5------------------------------------------------|
|----5-8---------8-10p8p7~--------------------------------------|
|-/5------------------------------------------------------------|
|---------------------------------------------------------------|
|---------------------------------------------------------------|
|---------------------------------------------------------------|

|---------------------------------------------------------------|
|-7-8-10-8s10s8-8s7-5~------------------------------------------|
|---------------------------------------------------------------|
|---------------------------------------------------------------|
|---------------------------------------------------------------|
|---------------------------------------------------------------|

|---------------------------------------------------------------|
|-5-7s8-7^8r7-7s5-5s3-3~----------------------------------------|
|---------------------------------------------------------------|
|---------------------------------------------------------------|
|---------------------------------------------------------------|
|---------------------------------------------------------------|
Tap to rate this tab
 
# A B C D E F G H I J K L M N O P Q R S T U V W X Y Z