Song name
# A B C D E F G H I J K L M N O P Q R S T U V W X Y Z

Chicago - Beginings tab

Begining
Chicago
Chicago Transit Authority

Transcribed bY: Matt Schultz
Tuning: Standard

There's really only on guitar part that almost repeats through the whole song. Theres 
ways to play it:

Main Riff 1:
  Amaj7                         Gmaj7
|---------------------------------------------------------------|
|-14-14-14-14-14-14-14-14-14-14/12-12-12-12-12-12-12-12-12-12---|
|-13-13-13-13-13-13-13-13-13-13/11-11-11-11-11-11-11-11-11-11---|
|-14-14-14-14-14-14-14-14-14-14/12-12-12-12-12-12-12-12-12-12---|
|---------------------------------------------------------------|
|---------------------------------------------------------------|


Main Riff 2:
 Amaj7                 Gmaj7
|-9-9-9-9-9-9-9-9-9-9--7-7-7-7-7-7-7-7-7-7---|
|-9-9-9-9-9-9-9-9-9-9--7-7-7-7-7-7-7-7-7-7---|
|-9-9-9-9-9-9-9-9-9-9--7-7-7-7-7-7-7-7-7-7---|
|-7-7-7-7-7-7-7-7-7-7--7-7-7-7-7-7-7-7-7-7---|
|--------------------------------------------|
|--------------------------------------------|

Thats pretty much it. Enjoy!
Tap to rate this tab
# A B C D E F G H I J K L M N O P Q R S T U V W X Y Z