Song name
# A B C D E F G H I J K L M N O P Q R S T U V W X Y Z

Chichi Peralta - Amor Narcotico tab

e----------3--------3h--4h----3---------------------------1-----------1-----4------1--------------|
B------4-----4----------------------4------------------1--------1---------------------------------|
G--3-------------------------------------3---------1----------------------------------------------|
D-------------------------------------------------------------------------------------------------|
A-------------------------------------------------------------------------------------------------|
E-------------------------------------------------------------------------------------------------|

e----------3--------3----6--------3-----------------------------4-------------------3-------------|
B------3------3--------------4--------4--------------------4-------4-------------3-------3--------|
G--3-----------------------------------------3---------5----------------------3-------------------|
D-------------------------------------------------------------------------------------------------|
A-------------------------------------------------------------------------------------------------|
E-------------------------------------------------------------------------------------------------|

e--------1-----------4----------------------------------------------------------------------------|
B-----1----1---------4-------3--------------------------------------------------------------------|
G--1----------------------1-------1---------------------------------------------------------------|
D-------------------------------------------------------------------------------------------------|
A-------------------------------------------------------------------------------------------------|
E-------------------------------------------------------------------------------------------------|

h- hammer
Tap to rate this tab
# A B C D E F G H I J K L M N O P Q R S T U V W X Y Z