Song name
# A B C D E F G H I J K L M N O P Q R S T U V W X Y Z

Chichi Peralta - Amor Narcotico tab

Amor Narcótico
Chichi Peralta

E |-------3-4-3----------1---1-4-1------------------|
B |-----4-------4------1---4-------1----------------|
G |---3-----------3--1---------------1--------------|
D |-------------------------------------------------|
A |-------------------------------------------------|
E |-------------------------------------------------|


E |----3-1-3-6-3-1-3----------4-------3--------1-------|
B |--3---------------3------4---4---3--------1---1-4-3-|
G |3-------------------3--5-------3-----3--1-----------|
D |----------------------------------------------------|
A |----------------------------------------------------|
E |----------------------------------------------------|

www.chichiperalta.com.do
Tap to rate this tab
# A B C D E F G H I J K L M N O P Q R S T U V W X Y Z