Song name
# A B C D E F G H I J K L M N O P Q R S T U V W X Y Z

Chickenfoot - Down The Drain tab

Tuning: Eb,Bb,Gb,Db,Ab,Eb

Intro
repeat times and end on Eb5
e--5-----5------5-----5------4-----4-----2-----2------2-----2-----5-----5-----|
b----5-----5------5-----5------5-----5-----5-----5------5-----5-----5-----5---|
g------4-----4------4-----4------4-----4-----4-----4------4-----4-----4-----4-|
d-----------------------------------------------------------------------------|
a-----------------------------------------------------------------------------|
e-----------------------------------------------------------------------------|

Main Riff
e---------------------------------------------------------------------------|
b---------------------------------------------------------------------------|
g---11/12----11/12--11--9---------------------------------------------------|
d---11/12----11/12--11--9---------------------------------------------------|
a---9//10----9//10--9---7---------------------------------------------------|
e---------------------------------------------------------------------------|

Verse
e-------------------------------------|
b-------------------------------------|
g-------------------------------------|
d-------------------------------------|
a-7-7-7-7-7-7-7---7p5----7------------|  after this a couple of times play
e-0-0-0-0-0-0-0--------7--------------|  the main riff

Chorus
e--------------------------------------------------------------------------|
b--------------------------------------------------------------------------|
g---7~~---9~---9-----------------------------------------------------------|
d---5~~---7~---9-----------------------------------------------------------|
a--------------7---7-7-7-7-7-7-7-7-----------------------------------------|
e------------------0-0-0-0-0-0-0-0-----------------------------------------|

After The 2nd Chorus Joe Plays Something Like This
e---------------------------------------------------------------------------|
b---------------------------------------------------------------------------|
g---------7-----------------------------------------------------------------|
d--7h8h9-----9p8p7/5--------------------------------------------------------|
a---------------------7--5h7------------------------------------------------|
e---------------------------------------------------------------------------|

And After That
e--12~~~~~~~------------------------------------17b~~~~~r16b~~~~---------|
b-15b17~~~~~-------------------------------------------------------------|
g---------------9~~~~9/11~~~~11/12~~12/14~~~~----------------------------|
d------------------------------------------------------------------------|
a---------------7~~~~7/9~~~~~9/10~~~10/12~~~~----------------------------|
e------------------------------------------------------------------------|

Then the solo comes in. Its in the Eb pentatonic scale, I can tell you that. Then 
chorus and then a 2nd solo, also in the Eb pentatonic scale. Keep in mind your tuned to a 
Then at the end the last lick Joe lays down after Sammy screams goes like this
e--//17br15~~~-------------------------------------------------------------|
b---------------17-15----15------------------------------------------------|
g---------------------16----16---14--12-14p12------------------------------|
d---------------------------------------------14p12h14---------------------|
a--------------------------------------------------------------------------|
e--------------------------------------------------------------------------|
Tap to rate this tab
# A B C D E F G H I J K L M N O P Q R S T U V W X Y Z