Song name
# A B C D E F G H I J K L M N O P Q R S T U V W X Y Z

Chickenfoot - Sexy Little Thing tab

I haven't tabbed out the whole song, but I've done most of it other than the solo 
I just improv the solo.

Riff 1
E|---------------------------------------------|
B|---------------------------------------------|
G|--7-7-5h7p5-4-2--2-0----5-5-4h5p4-2-0-0-0----|
D|--0-0-0-----0-0--0-0----0-0-0-----0-0-0-0----|
A|---------------------------------------------|
E|---------------------------------------------|

Riff 2
E|-------------------------3--|
B|-----3---3-3--3-3-3-3----3--|
G|-----2---2-2--2-2-2-2----0--|
D|-----0---0-0--0-0-0-0----2--|
A|-0-3---3---------------x-3--|
E|----------------------------|
              (...PM...)

Riff 3
E|---------------------------------------------|
B|---------------------------------------------|
G|--11-11-9h11p9-7-5--5-5----9-9-7h9p7-5-4-4-4-|
D|--0--0--0------0-0--0-0----0-0-0-----0-0-0-0-|
A|---------------------------------------------|
E|---------------------------------------------|


Riff 4
E|----0~~----3~~~--------|
B|----0~~----0~~~--3~~~--|
G|----1~~----0~~~--2~~~--|
D|----2~~----0~~~--0~~~--|
A|--2------2-------------|
E|--0------3-------------|


Riff 5
E|----------10-------10-10-------10-10-------10--------------|
B|--------10---------10-10-------10-10-------10-12~~~~~~~~---|
G|--12b14------12b14-------12b14-------12b14----12b13r12~~---|
D|-----------------------------------------------------------|
A|-----------------------------------------------------------|
E|-----------------------------------------------------------|

Riff 6
E|----------------------|
B|--7--7-8-7--7--8-8-8--|
G|---------------7-7-7--|
D|--7--7-7-7--7--5-5-5--|
A|--5--5-5-5--5---------|
E|----------------------|

Intro:Riff 1 x4
Verse: Riff 1 x4
Bridge: Riff 2 x2
Verse: Riff 1 x4
Chorus: Riff 2 x4
Verse: Riff 1 x2, Riff 3 x1, Riff 1 x1
Chorus: RIff 2 x4
Bridge: Riff 4 x1
Solo
Bridge: Riff 1 x1, Riff 3 x2, Riff 1 x1
Stop
Chorus: Riff 2 x8
Outro: Riff 5 x1, Riff 2 x1, Riff 5 x1, Riff 2 x1, Riff 6 x4, Riff 1 x1, Riff 3 x1, Riff 
x1
Then this little bit at the end of Riff 1
G|-4-5-4-5-4-5-4-5--|
D|-0-0-0-0-0-0-0-0--|

Then just mess about with the wah around the 15th/17th frets.

Hope I didn't miss too much out. Enjoy.
Tap to rate this tab
# A B C D E F G H I J K L M N O P Q R S T U V W X Y Z